Antje Duvekot - Long Way Chords & Tabs

 

Long Way Chords & Tabs

Antje Duvekot Chords & Tabs

Version: 1 Type: Tab 0 ratings
1 star 2 stars 3 stars 4 stars 5 stars
comments

Long Way Tab

Long Way -- Antje Duvekot  Standard tuning  CAPO IV

I've seen another tab at Capo VI with normal chords, but this is easier for me to play
with a smoother bass line -- Travis Hussey, mr_flycstr@yahoo.com

Riff 1: Intro/Verse A
e----------------------0---|
B------0------0-----0------|
G----4------4-----4--------|
D--------------------------|
A-4------0-----2-----------|
E--------------------------|
[ Tab from: http://www.guitartabs.cc/tabs/a/antje_duvekot/long_way_tab.html ]
Riff 2: Verse B
e-0-----0--0-----0--0-----0--0---0----0----0---------0------0--------|
B-----0--------0--------0------0---0-----0---------0------0---4----4-|
G----4--------4--------4----------------4----4----4------4------4----|
D----------------------------2---1-------------------------------4---| x2
A-4--------2--------0-----------------4----4---0-------2------2------|
E--------------------------------------------------------------------|

Chorus:
e----0---0---0---0-------0----0---0---0---0---0-----------0--------|
B---------------------0---------------------------------0---4----4-|
G---4---4---4---4----4-------4---4---4---4---4-----4---4------4----|
D-2---1--------------------2---1-------------------------------4---|
A---------4---2---0----------------4---2---0---2h4---2------2------|
E------------------------------------------------------------------|

                          Second ending: |----0-----------0--------|
                                         |--------------0----------|
                                         |---4----4----4-----------|
                                         |----------2-------2------|
                                         |-0----2------------------|
                                         |-------------------------|
Comments