Antje Duvekot - Dandelion Chords & Tabs

 

Dandelion Chords & Tabs

Antje Duvekot Chords & Tabs

Version: 1 Type: Tab 0 ratings
1 star 2 stars 3 stars 4 stars 5 stars
comments

Dandelion Tab

   
Dandelion -- Antje Duvekot

CAPO VII
Intro: G5, G4 x2 (see p. 2)

When Harry met Sally, it was settled               G3, G4
That Mary Jane would fall for Spiderman            A7, G4
Their story was set in stone like Tarzan & Jane    A7, Em7
Yoko & John                                        C2, Dsus/F#

You were like my Hollywood movie                   C9, G
Butterflies-in-Central-Park kiss                   C9, G
Of course you would persue me I was Julia Roberts  C9, Em*
I mean, how could you resist?                      C2, Dsus/F#

Chorus (2 beats per chord)
I am the Fourth of July                   G-G/F-C9-C9
Throwing you a fire in the sky            G-G/F-Em7-Em7
You could go blind in my light            Em-Dsus/F#-C9-C9
You were looking for an orchid            C-Dsus/F#- C9-C9
And I will always be...                   Dsus/F# x4 (w/ hammer-on)
your dandelion. Dandelion.                G-C9 x2

So I put on the best of my Warhols                  C9, G
I could have been your Marilyn Monroe               C9, G
But you had only eyes for the Mona Lisa             C9, Em*
You shared my cab ride all the way home             C2, Dsus/F#

Chorus (lead into bridge:)

I am a middle-class home        am
I am a worn-out banjo           Em
I've never danced in Swan Lake  D/F#
I've never played the cello     G/F#?
I am the Northern Lights        C
I am invisible                  G
I am your dandelion             D/F#
I am forever wild               Dsus/F#

Chorus (I will always be... your firesfly...)
[ Tab from: http://www.guitartabs.cc/tabs/a/antje_duvekot/dandelion_tab.html ]
Repeat "Dandelion..." quite a few times  G, C9

End Em*-D/F#-C9 x2

Intro; off-beat style identical to rest of song
---33--33--33--33--33--33--33--33--|
---33--33--33--33--11--11--11--11--|  Repeat once before first verse
---00--00--00--00--00--00--00--00--|
-00000000000000000000000000000000--|
-----------------------------------|
-----------------------------------|

---33--33--33--33--33--33--33--33     --33--33--33--33--33--33--33--33--|
---11--11--11--11--33--33--33--33     --11--11--11--11--33--33--33--33--|
---00--00--00--00--00--00--00--00     --00--00--00--00--00--00--00--00--|
-00000000000000000000000000000000     22222222222222220000000000000000--|
-----------------------------------   ----------------------------------|
-----------------------------------   ----------------------------------|
When Harry...                         That Mary Jane...

---33--33--33--33--33--33--33--33     --33--33--33--33--33--33--33--33--|
---11--11--11--11--33--33--33--33     --33--33--33--33--33--33--33--33--|
---00--00--00--00--00--00--00--00     --00--00--00--00--22--22--22--22--|
-2222222222222222--00000000000000     --00--00--00--00--00--00--00--00--|
-----------------0h22222222222222--   0h33333333333333--00--00--00--00--|
-----------------------------------   ----------------2222222222222222--|
Their story...                       Yoko and John


Repeat pattern with second verse lyrics, chorus, and bridge.


Assumed chord names, in order of appearance:
G5=xx0033
G4=xx0013
A7=xx2013
Em7=020033
C2=x30033
Dsus/F#=200233
G=320033
G/F=100033
C9=032033 (with pull-offs on D-string in Chorus)
Em*=022033
C=032010
am=002210
Em=022000
D/F#=200232
Comments