Antiskeptic - Jimmy Was Always Thinking Chords & Tabs

 

Jimmy Was Always Thinking Chords & Tabs

Antiskeptic Chords & Tabs

Version: 1 Type: Tab 0 ratings
1 star 2 stars 3 stars 4 stars 5 stars
comments

Jimmy Was Always Thinking Tab

No Bull, I've looked absolutly everywhere for this tab and I couldn't find
it.....So the logical thing to do was to tab it myself. As far as I know, this
is the only tab for this song on the internet at this time. It goes something like this....

Intro

E-----------------------------------
B-----------------------------------
G-------------------------3-3-3-3-3-
D---3-0-3-1-0-3-1-0-3-1-0-3-3-3-3-3-   Do This 4 times
A-1-----------------------1-1-1-1-1-
E-----------------------------------


E----------------------------------------------------------------
B----------------------------------------------------------------
G-------------------------------------------7-7-7-7--8-8-8-8-----  Do This 2 
D-8-8-8--8-8-8--7-7-7--7-7-7--5-5-5--5-5-5--7-7-7-7--8-8-8-8-----  times
A-8-8-8--8-8-8--7-7-7--7-7-7--5-5-5--5-5-5--5-5-5-5--6-6-6-6-----
E-6-6-6--6-6-6--5-5-5--5-5-5--3-3-3--3-3-3-----------------------


Verse

Palm Muted

E---------------------------------------------------------
B---------------------------------------------------------
G------------------------------------ 7-7-7-7-7-7-7-7-----  Do This 4 times
D-8-8-8-8-8-8-7-7-7-7-7-7-5-5-5-5-5-5-7-7-7-7-7-7-7-7-----  
A-8-8-8-8-8-8-7-7-7-7-7-7-5-5-5-5-5-5-5-5-5-5-5-5-5-5-----
E-6-6-6-6-6-6-5-5-5-5-5-5-3-3-3-3-3-3---------------------


Chorus

E----------------------------------------------------------
B----------------------------------------------------------
G--------7-7-7-7-------------------------------------------  Do this 4 times
D-5-5-5--7-7-7-7--8-8-8----7-8-10-8------------------------
A-5-5-5--5-5-6-6--8-8-8----7-8-10-8------------------------
E-3-3-3-----------6-6-6----5-6-8--6------------------------


Chorus 2

On the 4th time of doing the chorus, it comes back to a pulm muted bit.
Now you should know enough to be able to listen for when it comes in.

Palm Muted

E----------------------------------------------------------------
B----------------------------------------------------------------
G-------------------------------------------7-7-7-7--8-8-8-8-----  Do This 2
D-8-8-8--8-8-8--7-7-7--7-7-7--5-5-5--5-5-5--7-7-7-7--8-8-8-8-----  times
A-8-8-8--8-8-8--7-7-7--7-7-7--5-5-5--5-5-5--5-5-5-5--6-6-6-6-----
E-6-6-6--6-6-6--5-5-5--5-5-5--3-3-3--3-3-3-----------------------

Not palm muted

E----------------------------------------------------------------
B----------------------------------------------------------------
G-------------------------------------------7-7-7-7--8-8-8-8-----  Do This 2
D-8-8-8--8-8-8--7-7-7--7-7-7--5-5-5--5-5-5--7-7-7-7--8-8-8-8-----  times
A-8-8-8--8-8-8--7-7-7--7-7-7--5-5-5--5-5-5--5-5-5-5--6-6-6-6-----
E-6-6-6--6-6-6--5-5-5--5-5-5--3-3-3--3-3-3-----------------------


Fill

E----------------------------------------------------------
B----------------------------------------------------------
G---------------------------------7-7-8-8------------------       Do This 2
D---------------------------------7-7-8-8------------------       times
A-----8----------7----------5-----5-5-6-6------------------
E-6-6---6-6--5-5---5-5--3-3---3-3--------------------------
[ Tab from: http://www.guitartabs.cc/tabs/a/antiskeptic/jimmy_was_always_thinking_tab.html ]
E----------------------------------------------------------------
B----------------------------------------------------------------
G-------------------------------------------7-7-7-7--8-8-8-8-----  Do This 2
D-8-8-8--8-8-8--7-7-7--7-7-7--5-5-5--5-5-5--7-7-7-7--8-8-8-8-----  times
A-8-8-8--8-8-8--7-7-7--7-7-7--5-5-5--5-5-5--5-5-5-5--6-6-6-6-----
E-6-6-6--6-6-6--5-5-5--5-5-5--3-3-3--3-3-3-----------------------


Verse

(no guitar)


Chorus

E----------------------------------------------------------
B----------------------------------------------------------
G--------7-7-7-7-------------------------------------------  Do this 4 times
D-5-5-5--7-7-7-7--8-8-8----7-8-10-8------------------------
A-5-5-5--5-5-6-6--8-8-8----7-8-10-8------------------------
E-3-3-3-----------6-6-6----5-6-8--6------------------------


Chorus 2


Palm Muted

E----------------------------------------------------------------
B----------------------------------------------------------------
G-------------------------------------------7-7-7-7--8-8-8-8-----  Do This 2 
D-8-8-8--8-8-8--7-7-7--7-7-7--5-5-5--5-5-5--7-7-7-7--8-8-8-8-----  times
A-8-8-8--8-8-8--7-7-7--7-7-7--5-5-5--5-5-5--5-5-5-5--6-6-6-6-----
E-6-6-6--6-6-6--5-5-5--5-5-5--3-3-3--3-3-3-----------------------


Not palm muted

E----------------------------------------------------------------
B----------------------------------------------------------------
G-------------------------------------------7-7-7-7--8-8-8-8-----  Do This 2 
D-8-8-8--8-8-8--7-7-7--7-7-7--5-5-5--5-5-5--7-7-7-7--8-8-8-8-----  times
A-8-8-8--8-8-8--7-7-7--7-7-7--5-5-5--5-5-5--5-5-5-5--6-6-6-6-----
E-6-6-6--6-6-6--5-5-5--5-5-5--3-3-3--3-3-3-----------------------


Bridge

E----------------------------------------------------------------
B----------------------------------------------------------------
G--5-5-5-5-5-5-5-5--7-----------------10-10-10-10----------------  Do This 4
D--5-5-5-5-5-5-5-5--7--8-8-8-8-8------10-10-10-10----------------  times
A--3-3-3-3-3-3-3-3--5--8-8-8-8-8------8--8--8--8-----------------
E----------------------6-6-6-6-6---------------------------------

E---------------------------------------------------------------------
B---------------------------------------------------------------------
G---------------------------------------------------------------------
D---10-10-10-10-10-10-10-10------10-8-7-7-10-8-7-7-10-8-7-7-10-8-7-7--
A---8--8--8--8--8--8--8--8--------------------------------------------
E---------------------------------------------------------------------

Chorus

E----------------------------------------------------------
B----------------------------------------------------------
G--------7-7-7-7-------------------------------------------  Do this 4 times
D-5-5-5--7-7-7-7--8-8-8----7-8-10-8------------------------
A-5-5-5--5-5-6-6--8-8-8----7-8-10-8------------------------
E-3-3-3-----------6-6-6----5-6-8--6------------------------

End On

E----------
B----------
G----------
D--8-8-8---
A--8-8-8---
E--6-6-6---


That should give you an idea on how to play it. If you see anything wrong correct it. 
By Ryan.L.H.
Comments