Antiskeptic - Called Chords & Tabs

 

Called Chords & Tabs

Antiskeptic Chords & Tabs

Version: 1 Type: Tab 0 ratings
1 star 2 stars 3 stars 4 stars 5 stars
comments

Called Tab

   
Called
Antiskeptic
Memoirs of a Common Man

tabbed by Caleb is Finkel    --->caleb_is_finkel@hotmail.com<---

ok iv been lookin for antiskeptic tabs for ages, especially this song, but i
havent found any whatsoever. so i got my arse into gear and tabbed it myself.
it seems pretty right, ive watched the clip on FlyTV and it seems pretty close.
should be a pretty long tab, i dont wanna condense any of it (cant b buggered).
this has taken me ages to tab, ud betta all like it. theyr an awesome band and
this song rocks.

Standard Tuning - E A D G B E

Drum intro x 1 bar

*   Palm Mute
h   Hammer on
(#) Harmonic
r   Ring
x   Dont play string
!   Stop altogether
\   Slide down

Intro
e---------------------------------------------------------------------------
B--------------------------------------------------------------------------
G-4-4-4----------7--7-7--9-7--7--4-4-4-------------------------------------
D-4-4-4--4--4-4--7--7-7--9-7--7--4-4-4--4--4-4--4--4-4-------------------
A-2-2-2--4--4-4--5--5-5--7-5--5--2-2-2--4--4-4--4--4-4--------------------
E--------2--2-2--------------------------2--2-2--2--2-2--(3)-(3)-(2.9)-(2.5)
    * *     * *     * *       *     * *     * *      * *   
                                              im not too sure about
                                            numbers here in the    
                                           harmonics, but see what u reckon

e---------------------------------------------------------------------------
B---------------------------------------------------------------------------
G-4-4-4----------7--7-7--9-7--7--4-4-4--------------------------------------
D-4-4-4--4--4-4--7--7-7--9-7--7--4-4-4--4--4-4--4--4-4--5-5-5-5-5-5-5-5--4r-
A-2-2-2--4--4-4--5--5-5--7-5--5--2-2-2--4--4-4--4--4-4--5-5-5-5-5-5-5-5--4r-
E--------2--2-2-------------------------2--2-2--2--2-2--3-3-3-3-3-3-3-3--2r-
                                     * *     * *      * *    * *   * *   * 
Verse 1
e--------------------------------------------------------------
B--------------------------------------------------------------
G-4-----------------------------4------------------------------
D-4--4-2-0---0-2--4-4-4-5--5-5--4--4-2-0---0-2---4-4-4-5--5-5--   x2
A-2--------4------4-4-4-5--5-5--2--------4-------4-4-4-5--5-5--
E-----------------2-2-2-3--3-3-------------------2-2-2-3--3-3--
                    * *    * *                     * *    * *
Pre-Chorus
e-------------------------------------------------------------------
B-------------------------------------------------------------------
G---------------7--7-7-7-7-7-7-7-7---------------12--12-12--11--7-5-
D-5-5-5-5-5-5-5-7--7-7-7-7-7-7-7-7-7-7-7-7-7-7-7--x---x--x---x--x-x-
A-5-5-5-5-5-5-5-5--5-5-5-5-5-5-5-5-7-7-7-7-7-7-7-10--10-10---9--5-3-
E-3-3-3-3-3-3-3--------------------5-5-5-5-5-5-5--------------------
    * * * * * *    * * * * * * * *   * * * * * *

e---------------------------------------------------------------
B---------------------------------------------------------------
G---------------7-7-7-7-7-7-7-7---------------------------------
D-5-5-5-5-5-5-5-7-7-7-7-7-7-7-7-7-7-7-7-7-7-7-9-9-9-9-9-9-9-9---
A-5-5-5-5-5-5-5-5-5-5-5-5-5-5-5-7-7-7-7-7-7-7-9-9-9-9-9-9-9-9---
E-3-3-3-3-3-3-3-----------------5-5-5-5-5-5-5-7-7-7-7-7-7-7-7---
  * *   * * *   * * *   * * *   * * *   * * *   * *   * * * *
e-----------------------------------------------------------------
B-----------------------------------------------------------------
G-----------------------------------------------------------------
D-5-5-5-5-5-5-5-5-7-7-7-7-7-7-7-7-9-9-9-9-9-9-9-7-7-7-7-7-7-7-7---
A-5-5-5-5-5-5-5-5-7-7-7-7-7-7-7-7-9-9-9-9-9-9-9-7-7-7-7-7-7-7-7---
E-3-3-3-3-3-3-3-3-5-5-5-5-5-5-5-5-7-7-7-7-7-7-7-5-5-5-5-5-5-5-5--- 
  * * * * * * * * * * * * * * * * * * * * * * * * * * * * * * * 
e-------------------------------------------------------------
B-------------------------------------------------------------
G---------------------------------------------------7-7-6-7---
D-5-5-5-5-5-5-5-5-7-7-7-7-7-7-7-7-9-9-9--9-9-9-9-7!-x-x-x-x---
A-5-5-5-5-5-5-5-5-7-7-7-7-7-7-7-7-9-9-9--9-9-9-9-7!-5-5-4-5---
E-3-3-3-3-3-3-3-3-5-5-5-5-5-5-5-5-7-7-7--7-7-7-7-5!-----------
  * * * * * * * * * * * * * * * *   

Chorus
e-----------------------------------------------------------------
B-----------------------------------------------------------------
G-----------------------------------------------------------------
D-5--5--5-5-5-5-5-7-7-7-7-7-7-7-7-9-9-9-9-9-9-9-7-7-7-7-7-7-7-7---
A-5--5--5-5-5-5-5-7-7-7-7-7-7-7-7-9-9-9-9-9-9-9-7-7-7-7-7-7-7-7---
E-3--3--3-3-3-3-3-5-5-5-5-5-5-5-5-7-7-7-7-7-7-7-5-5-5-5-5-5-5-5---  x2

Break
e------------------------------------------------------------------------------
B------------------------------------------------------------------------------
G--4-4-4----------7--7-7--9-7--7--4-4-4---------------------------------------
D--4-4-4--4--4-4--7--7-7--9-7--7--4-4-4--4--4-4--4--4-4--5-5-5-5-5-5-5-5-4r-
A--2-2-2--4--4-4--5--5-5--7-5--5--2-2-2--4--4-4--4--4-4--5-5-5-5-5-5-5-5-4r-
E---------2--2-2-------------------------2--2-2--2--2-2--3-3-3-3-3-3-3-3-2r-
                                     * *     * *      * *    * *   * *   * 
Verse 2
e--------------------------------------------------------------
B--------------------------------------------------------------
G-4-----------------------------4------------------------------
D-4--4-2-0---0-2--4-4-4-5--5-5--4--4-2-0---0-2---4-4-4-5--5-5--   x2
A-2--------4------4-4-4-5--5-5--2--------4-------4-4-4-5--5-5--
E-----------------2-2-2-3--3-3-------------------2-2-2-3--3-3--
                    * *    * *                     * *    * *

Pre-Chorus
e-------------------------------------------------------------------
B-------------------------------------------------------------------
G---------------7--7-7-7-7-7-7-7-7---------------12--12-12--11--7-7-
D-5-5-5-5-5-5-5-7--7-7-7-7-7-7-7-7-7-7-7-7-7-7-7--x---x--x---x--x-x-
A-5-5-5-5-5-5-5-5--5-5-5-5-5-5-5-5-7-7-7-7-7-7-7-10--10-10---9--5-3-
E-3-3-3-3-3-3-3--------------------5-5-5-5-5-5-5--------------------
    * * * * * *    * * * * * * * *   * * * * * *
[ Tab from: http://www.guitartabs.cc/tabs/a/antiskeptic/called_tab.html ]
e---------------------------------------------------------------
B---------------------------------------------------------------
G---------------7-7-7-7-7-7-7-7---------------------------------
D-5-5-5-5-5-5-5-7-7-7-7-7-7-7-7-7-7-7-7-7-7-7-9-9-9-9-9-9-9-9---
A-5-5-5-5-5-5-5-5-5-5-5-5-5-5-5-7-7-7-7-7-7-7-9-9-9-9-9-9-9-9---
E-3-3-3-3-3-3-3-----------------5-5-5-5-5-5-5-7-7-7-7-7-7-7-7---
  * *   * * *     * *   * * *   * * *   * * *   * *   * * * *

e-----------------------------------------------------------------
B-----------------------------------------------------------------
G-----------------------------------------------------------------
D-5-5-5-5-5-5-5-5-7-7-7-7-7-7-7-7-9-9-9-9-9-9-9-7-7-7-7-7-7-7-7---
A-5-5-5-5-5-5-5-5-7-7-7-7-7-7-7-7-9-9-9-9-9-9-9-7-7-7-7-7-7-7-7---
E-3-3-3-3-3-3-3-3-5-5-5-5-5-5-5-5-7-7-7-7-7-7-7-5-5-5-5-5-5-5-5--- 
  * * * * * * * * * * * * * * * * * * * * * * * * * * * * * * * 
e-------------------------------------------------------------
B-------------------------------------------------------------
G---------------------------------------------------7-7-6-7---
D-5-5-5-5-5-5-5-5-7-7-7-7-7-7-7-7-9-9-9--9-9-9-9-7!-x-x-x-x---
A-5-5-5-5-5-5-5-5-7-7-7-7-7-7-7-7-9-9-9--9-9-9-9-7!-5-5-4-5---
E-3-3-3-3-3-3-3-3-5-5-5-5-5-5-5-5-7-7-7--7-7-7-7-5!-----------
  * * * * * * * * * * * * * * * *   

Chorus
e-----------------------------------------------------------------
B-----------------------------------------------------------------
G-----------------------------------------------------------------
D-5--5--5-5-5-5-5-7-7-7-7-7-7-7-7-9-9-9-9-9-9-9-7-7-7-7-7-7-7-7---
A-5--5--5-5-5-5-5-7-7-7-7-7-7-7-7-9-9-9-9-9-9-9-7-7-7-7-7-7-7-7---
E-3--3--3-3-3-3-3-5-5-5-5-5-5-5-5-7-7-7-7-7-7-7-5-5-5-5-5-5-5-5---  x2

Interlude
e-----------------------------------------------
B-----------------------------------------------
G-----------------------------------------------
D-5--5-5-5-5-4----------------------------------
A---------------5--5-5-5-5-7--------------------
E----------------------------7--7-7-7-7-10--7-5-

e---------------------------------------------------------------------
B---------------------------------------------------------------------
G---------------------------------------------------------------------
D---------5--5-5-5-5-7------------------------------------------------
A-4-4-5-7--------------5--5-5-5-5-7-----------------------------------
E-----------------------------------7--7-7-7-7-10-7-5--5-5-5-10-7-3!--

e---------------------------------------------------------
B---------------------------------------------------------
G---------------------------------------------------------
D-5-------------------------------------------4-----------
A-5-5r--4h5h4-----5r--4h5h4-----5r--4h5h4-------5-7-5-4-5-
E-3-----------5-5-----------7-7-----------5-5-------------
              * *           * *           * *             
e---------------------------------------------------------
B---------------------------------------------------------
G---------------------------------------------------------
D-5-------------------------------------------4-----------
A-5-5r--4h5h4-----5r--4h5h4-----5r--4h5h4-------5-7-5-4-5-
E-3-----------5-5-----------7-7-----------5-5-------------
              * *           * *           * *             

Solo (as if the interlude wasnt enough...)
e------------------------------------------------------------
B----------------------10-8-7---------8-7--------------------
G-------4-6-7--5-7--7---------7-----------9-7----9-7-6h7h6---
D--5--5--------------------------9--9----------7-------------
A------------------------------------------------------------
E------------------------------------------------------------

e-----------------------------------------------------------------
B----------------------10-8-7---------8-7-------------------------
G-------4-6-7--5-7--7---------7-----------9-7----9-7-6h7h6--------
D--5--5--------------------------9--9----------7-------------5r---
A-----------------------------------------------------------------
E-----------------------------------------------------------------

e-----------------
B-----------------
G-----------------
D-5-5-5-5-5-5-4r--
A-5-5-5-5-5-5-4r--
E-3-3-3-3-3-3-2r--
  * * *   * *

Verse 3
e--------------------------------------------------------------------
B--------------------------------------------------------------------
G-4-4-4-4-4-4-4---------------------4-4-4-4-4-4-4--------------------
D-4-4-4-4-4-4-4-4-4-4-4-5--5-5-5-5--4-4-4-4-4-4-4-4-4-4-4-5--5-5-5-5-
A-2-2-2-2-2-2-2-4-4-4-4-5--5-5-5-5--2-2-2-2-2-2-2-4-4-4-4-5--5-5-5-5-
E---------------2-2-2-2-3--3-3-3-3----------------2-2-2-2-3--3-3-3-3-
  * * * * * * * * * * * *  * * * *  * * * * * * * * * * * *  * * * * 

e--------------------------------------------------------------------
B--------------------------------------------------------------------
G-4-4-4-4-4-4-4---------------------4-4-4-4-4-4-4--------------------
D-4-4-4-4-4-4-4-4-4-4-4-5--5-5-5-5--4-4-4-4-4-4-4-4-4-4-4-5-5!-------
A-2-2-2-2-2-2-2-4-4-4-4-5--5-5-5-5--2-2-2-2-2-2-2-4-4-4-4-5-5!-------
E---------------2-2-2-2-3--3-3-3-3----------------2-2-2-2-3-3!-------
  * * * * * * * * * * * *  * * * *  * * * * * * 

Chorus
e-----------------------------------------------------------------
B-----------------------------------------------------------------
G-----------------------------------------------------------------
D-5--5--5-5-5-5-5-7-7-7-7-7-7-7-7-9-9-9-9-9-9-9-7-7-7-7-7-7-7-7---
A-5--5--5-5-5-5-5-7-7-7-7-7-7-7-7-9-9-9-9-9-9-9-7-7-7-7-7-7-7-7---
E-3--3--3-3-3-3-3-5-5-5-5-5-5-5-5-7-7-7-7-7-7-7-5-5-5-5-5-5-5-5--- x 4

3rd Chorus (only drums)
e--------------
B--------------
G--------------
D-7\-----------
A-7\-----------
E-5\-----------

Outro
e------------------------------------------------
B------------------------------------------------
G--4-4-4----------7--7-7--9-7--7---4-4-4-4-------
D--4-4-4--4--4-4--7--7-7--9-7--7---4-4-4-4-4-4!--
A--2-2-2--4--4-4--5--5-5--7-5--5---2-2-2-2-4-4!--
E---------2--2-2---------------------------2-2!--


Phew! thats all of it, and i can pretty much reassure that theres not much
wrong with it. If you think theres something wrong, before you complain, look
for another version. once youve found that theres NONE, then do one yourself.
If you cant be bothered, piss off.
Ne other comments drop me a line at caleb_is_finkel@hotmail.com
Comments