Antiskeptic - Called Chords & Tabs

 

Called Chords & Tabs

Antiskeptic Chords & Tabs

Version: 1 Type: Bass Tab 0 ratings
1 star 2 stars 3 stars 4 stars 5 stars
comments

Called Bass Tab

www.antiskeptic.com.au, australia, new band

Called
Antiskeptic
Memoirs of a Common Man

Tabbed by caleb    ---->caleb_is_finkel@hotmail.com<----

ok well im a guitarist and havent played bass for about 3 years, but i did this
tab for my bass player in my band. theres nowhere near as much detail in this as
there is in the guitar tab, but this was kinda rushed.

Main Riff
G----------------------------------------------------------
D----------------------------------------------------------
A-2-2-2-------5-5-5-7-5---2-2-2----------------------------
E-------2-2-2-------------------2-2-2--2-2-2--3--3--3-3-2--
B----------------------------------------------------------

Verse
G---------------------------        G---------------------------
D----4-2-0---0-4------------        D---------------------------
A-2--------2----------------        A-2-2-2-2-2-2-2-2-----------
E-----------------2--2-3--3-        E-----------------2--2-3-3--
B---------------------------   or   B---------------------------

Prechorus
G-------------------------------------------------------------------
D-------------------------------------------------------------------
A----------------5-5-5-5-5-5-5-5-------------------10-10-10-9--7-5--
E-3-3-3-3-3-3-3-------------------5-5-5-5-5-5-5-5-------------------
B-------------------------------------------------------------------

G-------------------------------------------------------------------
D-------------------------------------------------------------------
A----------------5-5-5-5-5-5-5-5------------------------------------
E-3-3-3-3-3-3-3-------------------5-5-5-5-5-5-5-5--7-7-7-7-7-7-7-7--
B-------------------------------------------------------------------

G-------------------------------------------------------------------
D-5-5-5-5-5-5-5--7-7-7-7-7-7-7-7--9-9-9-9-9-9-9-9--7-7-7-7-7-7-7-7--
A-------------------------------------------------------------------
E-------------------------------------------------------------------
B-------------------------------------------------------------------

G-------------------------------------------------------------------
D-5-5-5-5-5-5-5--7-7-7-7-7-7-7-7--9-9-9-9-9-9-9-9--7-(stop)---------
A-------------------------------------------------------------------
E-------------------------------------------------------------------
B-------------------------------------------------------------------

Chorus
G-------------------------------------------------------------------
D-------------------------------------------------------------------
A-------------------------------------------------------------------
E-3-3-3-3-3-3-3--5-5-5-5-5-5-5-5--7-7-7-7-7-7-7-7--5-5-5-5-5-5-5-5--   x2
B-------------------------------------------------------------------

Main Riff
G----------------------------------------------------------
D----------------------------------------------------------
A-2-2-2-------5-5-5-7-5---2-2-2----------------------------
E-------2-2-2-------------------2-2-2--2-2-2--3--3--3-3-2--
B----------------------------------------------------------
[ Tab from: http://www.guitartabs.cc/tabs/a/antiskeptic/called_btab.html ]
Verse
G---------------------------        G---------------------------
D----4-2-0---0-4------------        D---------------------------
A-2--------2----------------        A-2-2-2-2-2-2-2-2-----------
E-----------------2--2-3--3-        E-----------------2--2-3-3--
B---------------------------   or   B---------------------------

Prechorus
G-------------------------------------------------------------------
D-------------------------------------------------------------------
A----------------5-5-5-5-5-5-5-5-------------------10-10-10-9--7-5--
E-3-3-3-3-3-3-3-------------------5-5-5-5-5-5-5-5-------------------
B-------------------------------------------------------------------

G-------------------------------------------------------------------
D-------------------------------------------------------------------
A----------------5-5-5-5-5-5-5-5------------------------------------
E-3-3-3-3-3-3-3-------------------5-5-5-5-5-5-5-5--7-7-7-7-7-7-7-7--
B-------------------------------------------------------------------

G-------------------------------------------------------------------
D-5-5-5-5-5-5-5--7-7-7-7-7-7-7-7--9-9-9-9-9-9-9-9--7-7-7-7-7-7-7-7--
A-------------------------------------------------------------------
E-------------------------------------------------------------------
B-------------------------------------------------------------------

G-------------------------------------------------------------------
D-5-5-5-5-5-5-5--7-7-7-7-7-7-7-7--9-9-9-9-9-9-9-9--7-(stop)---------
A-------------------------------------------------------------------
E-------------------------------------------------------------------
B-------------------------------------------------------------------

Chorus
G-------------------------------------------------------------------
D-------------------------------------------------------------------
A-------------------------------------------------------------------
E-3-3-3-3-3-3-3--5-5-5-5-5-5-5-5--7-7-7-7-7-7-7-7--5-5-5-5-5-5-5-5--   x2
B-------------------------------------------------------------------

For first guitar break, play chorus x2

Break
G-----------------------------------
D-----------------------------------
A-----------------------------------
E--3-3------5-5------7-7------5-5---
B-----------------------------------   x2

Solo
G-------------------------------------------------------------------
D-------------------------------------------------------------------
A-------------------------------------------------------------------
E-3-3-3-3-3-3-3--5-5-5-5-5-5-5-5--7-7-7-7-7-7-7-7--5-5-5-5-5-5-5-5--   x2
B-------------------------------------------------------------------

End of solo
G-------------
D-------------
A-------------
E--3--3--3-2--
B-------------  x2

Guitar part, then pick scratch the 2nd time

Chorus
G-------------------------------------------------------------------
D-------------------------------------------------------------------
A-------------------------------------------------------------------
E-3-3-3-3-3-3-3--5-5-5-5-5-5-5-5--7-7-7-7-7-7-7-7--5-5-5-5-5-5-5-5--   x4
B-------------------------------------------------------------------

3rd repeat of chorus, just slide out at the start
G------
D------
A------
E-5/0--
B------

Outro
G-------------------------------------
D-------------------------------------
A-2-2-2-------5-5-5-7-5---2-2-2-------
E-------2-2-2-------------------2-2---
B-------------------------------------
Comments