Antimatter - Flowers Chords & Tabs

 

Flowers Chords & Tabs

Antimatter Chords & Tabs

Version: 1 Type: Chords 0 ratings
1 star 2 stars 3 stars 4 stars 5 stars
comments

Flowers Chords

   
Antimatter
FLOWERS
(D.Patterson)

Taken from the album SAVIOUR


(Again, I have no idea the real name for some of these chords)

   D9  D9+C  A#   DM    C   A#+G   EM   FMAJ7   AM    G
e|--0----0----0----1----3----3-----0------0------0----0--|
B|--3----3----3----3----3----3-----0------1------1----0--|
G|--2----2----3----2----0----3-----0------2------2----0--|
D|--0---------0----0----2----0-----2------3------2----0--|
A|-------3--------------3----------2------3------0----2--|
E|---------------------------------0------------------3--|


INTRO -
---------

(D9) (D9+C) (D9) (D9+C) (D9) (D9+C) (A#) (D9)

VERSE 1 -
----------
[ Tab from: http://www.guitartabs.cc/tabs/a/antimatter/flowers_crd.html ]
(D9)I had (D9+C)a dream, (D9)far (D9+C)away from here,
(D9)Far (D9+C)away from you, (A#)far from all (D9)the pain.
(D9)With strength (D9+C)in numbers, (D9)the sad (D9+C)betrayal braves,
(D9)Return (D9+C)to desecrate those (A#)memories (D9)again.

CHORUS -
----------

(DM)And there you were taking (C)flowers from my grave...
(A#+G)(DM)(A#+G)(DM)
(DM)And there you were taking (C)flowers from my grave...
(A#+G)(DM)(A#+G)(DM)


VERSE 2 -
------------

(D9)I kiss (D9+C)the ground (D9)but I (D9+C)can hardly breathe,
(D9)As you (D9+C)scrape me from the (A#)pavement once (D9)again.
(D9)Safety (D9+C)in numbers, (D9)you thought (D9+C)I'd washed away,
(D9)But I'm still (D9+C)waiting for the (A#)rain... (D9)

CHORUS -
-------------

(DM)And there you were taking (C)flowers from my grave...
(A#+G)(DM)(A#+G)(DM)
(DM)And there you were taking (C)flowers from my grave...
(A#+G)(DM)(A#+G)(DM)



INSTRUMENTAL BREAK -
-----------------------

(EM) (FMAJ7) x4
(AM) (FMAJ7) (G) (FMAJ7) x4
(EM) (FMAJ7) x4
(AM) (FMAJ7) (G) (FMAJ7) x4

(EM)
Comments