Antiflag - That S Youth Chords & Tabs

 

That S Youth Chords & Tabs

Antiflag Chords & Tabs

Version: 1 Type: Tab 0 ratings
1 star 2 stars 3 stars 4 stars 5 stars
comments

That S Youth Tab

   
Anti-Flag
That´s youth
A new Kind Of Army
Rodrigo Diaz 

This song is pretty cool and a kinda more relax than others Anti-Flag´s songs, 
so this tab I think is perfect But you have to listen the song for be complety sure
ok?


INTRO
e|--------------------------------------------------------------------|
B|--------------------------------------------------------------------|
G|--------------------------------------------------------------------|
D|--------------------------------------------------------------------|
A|-9-9-9-9-9-9-8-8-------------9-9------------------------------------|
E|-----------------9-9-9-9-9-9-----4-4-4-4-4-4-6-6-7-7-7-7-7-7-4-4----|
[ Tab from: http://www.guitartabs.cc/tabs/a/antiflag/that_s_youth_tab.html ]
CHORUS
e|--------------------------------------------------------------------|
B|--------------------------------------------------------------------|
G|11-11-11-11-11-11-10-10---------------------------------------------|
D|11-11-11-11-11-11-10-10-11-11-11-11-11-11-11-11-6-6-6-6-6-6-8-8-9-9-9-9-9-9-6-6-|
A|-9--9--9--9--9--9--8--8-11-11-11-11-11-11--9--9-6-6-6-6-6-6-8-8-9-9-9-9-9-9-6-6-|
E|------------------------9--9--9--9--9--9--------4-4-4-4-4-4-6-6-7-7-7-7-7-7-4-4-|

VERSE

THE SAME STUPID CHORDS WITH SKA STYLE.

BRIDGE
e|--------------------------------------------------------------------|
B|--------------------------------------------------------------------|
G|--------------------------------------------------------------------|
D|-------------8-11---------------------------------------------------|
A|-9-9-9-9-9-9------------------8-11-------------3-6-------------6-9--|
E|------------------9-9-9-9-9-9------4-4-4-4-4-4-----7-7-7-7-7-7------|

AND THE OTHER BRIDGE PART IS THE SAME CHORDS BUT THAT STRANGE STYLE.

THAT´S ALL THAT´S ALL THAT´S ALL THAT´S ALL THAT´S ALL

Comments