Antibody - Bluetack Chords & Tabs

 

Bluetack Chords & Tabs

Antibody Chords & Tabs

Version: 1 Type: Tab 0 ratings
1 star 2 stars 3 stars 4 stars 5 stars
comments

Bluetack Tab

Artist: AnTiBoDy
Song: Bluetack
Album: ?
Lyrics and Music Written by: AnTiBoDy
Tabbed by Dane Wilson

Guitar Tabulature
Standard Tuning EADGBE
All tabs on this site are 100% accurate.

Intro/ Verse (Verse Muted)

E--------------------------------------------------------
A--------------------------------------------------------
D--9-9-----9-9------8-8-------8-8-------6-6------6-6-----
G------11------8-8-------11-------9-9--------9-------8-8-
B--------------------------------------------------------
e--------------------------------------------------------

E-------------------------
A--9-9-----9-9------------
D------------------------- Repeat Until Chours
G------8--------6---------
B-------------------------
e-------------------------
[ Tab from: http://www.guitartabs.cc/tabs/a/antibody/bluetack_tab.html ]
Chours
Let each ring 
E--------------------
A--------------------
D--9---8--6--4-------Repeat twice
G--8---8--8--8-------
B--------------------
e--------------------

Solo
Bass Solo on other tab

Guitar Solo 1
E-------------------------------------
A-------------------------------------
D--9--------8-------6--------9--------
G----11--8----9--8-----9--8-----6--8--
B-------------------------------------
e-------------------------------------

Solo 2
E--------------------------------------------------------
A--------------------------------------------------------
D-9-9-------------------------9-9---6-6--------------9-9-
G------8-8-9-9-11-11-9-9-8-8------------9-9-8-8-6-6-----
B--------------------------------------------------------
e--------------------------------------------------------

E----------------
A----------------
D----------------
G-6-6-8-8-9-9---- Repeat Solo 2 twice 
B----------------
e----------------

Then fade with the chours thats it
www.geocities.com/antibodyhome
Copywrite by Antibody 2002 all rights reserved 
Comments