Anti Villain - The House In Heaven Chords & Tabs

 

The House In Heaven Chords & Tabs

Anti Villain Chords & Tabs

Version: 1 Type: Tab 0 ratings
1 star 2 stars 3 stars 4 stars 5 stars
comments

The House In Heaven Tab

   
The House In Heaven  ---------------   Anti Villain
      							        
by- casinofreak

Intro

E----------|----------|----------|----------|-----|
B----------|----------|----------|----------|--0--|
G-----(2)--|------(1)-|------(4)-|------(6)-|--6--|< play
D---2------|----2-----|----5-----|----7-----|--7--|  twice
A-0--------|--2-------|--5-------|--7-------|--7--|
E----------|----------|----------|----------|-----|
                                             
E---------------------------------------|
B---------------------------------------|
G-----2-----2------2-----2-----2--------|
D---2-----2------2-----2-----2----------|
A-0-----0------0-----0-----0------0-----|
E---------------------------------------|
 
E---------------------------------------|
B---------------------------------------|
G-----1-----1------1-----1-----1--------|
D---2-----2------2-----2-----2----------|
A-2-----2------2-----2-----2-----2------|
E---------------------------------------|

E---------------------------------------|
B---------------------------------------|
G-----4-----4------4-----4-----4--------|
D---5-----5------5-----5-----5----------|
A-5-----5------5-----5-----5------5-----|
E---------------------------------------|

E----------------------------------|-----|
B----------------------------------|--0--|
G-----6-----6------6-----6-----6---|--6--|
D---7-----7------7-----7-----7-----|--7--|
A-7-----7------7-----7-----7-------|--7--|
E----------------------------------|-----|

End Intro  

E---| R     E---| R    E---| R     E---| R                  
B---| E     B---| E    B---| E     B---| E               
G-2-| P 8x  G-1-| P 8x G-4-| P 8x  G-6-| P 8x                    
D-2-| E     D-2-| E    D-5-| E     D-7-| E                
A-0-| A     A-2-| A    A-5-| A     A-7-| A                   
E---| T     E---| T    E---| T     E---| T               
 
(^^^ Repeat each of the bars in order twice)


E-----------|-----------|------------|-----------------|
B-----------|-----------|------------|-----------------|
G-5-5-5-5---|-0-0-0-0---|-7-7-7-7----|-2-2-2-2-2-2-2-2-|
D-5-5-5-5---|-2-2-2-2---|-9-9-9-9----|-4-4-4-4-4-4-4-4-|
A-0-0-0-0---|-2-2-2-2---|-9-9-9-9----|-4-4-4-4-4-4-4-4-|
E-----------|-----------|------------|-----------------|




[ Tab from: http://www.guitartabs.cc/tabs/a/anti_villain/the_house_in_heaven_tab.html ]
 
E-------|-------|-------|-------|   |-------|-------|-------|-------|
B-------|-------|-------|-------|   |-----7-|----10-|----13-|----13-|
G-----0-|-----0-|-----0-|----(0)|   |---8---|---11--|---14--|---14--|
D---2---|---2---|---2---|---2---|   |-9-----|-12----|-15----|-12----|
A-3-----|-2-----|-1-----|-0-----|   |-------|-------|-------|-------|
E-------|-------|-------|-------|   |-------|-------|-------|-------|
 
E-------|     |-------|     |-------|     |-------|    R
B----13-|     |----16-|     |----18-|     |----18-|    E
G---14--| 5x  |---17--| 5x  |---19--|  5x |---21--|5x  P
D--12---|     |--15---|     |--17---|     |--19---|    E
A-------|     |-------|     |-------|     |-------|    A
E-------|     |-------|     |-------|     |-------|    T

 
E-------|-------|-------|-------|
B----13-|----16-|----18-|----16-|
G----14-|----17-|----19-|----17-|
D-12----|-15----|-17----|-15----|
A-------|-------|-------|-------| repeat then continue below
E-------|-------|-------|-------|

E-------|-------|-------|-------|-------|-------|-------|----------|
B----13-|----11-|---8---|---6---|---5---|---4---|---2---|---2----1-|
G----14-|----12-|---9---|---7---|---6---|---5---|---3---|---2----2-|
D-12----|-10----|-7-----|-5-----|-4-----|-3-----|-1-----|---0------|
A-------|-------|-------|-------|-------|-------|-------|----------|
E-------|-------|-------|-------|-------|-------|-------|----------|
                                                         ^ ring on both

SOLO 

E-----------------------------------|-----------------------|
B-----------------------------------|-----------------------|
G---2--2-3------------4--3----------|--------5--4-----------|
D-0--3----0-2-3-2---5--5---7-5------|-----5-7----6-5-4-(6)--|
A-----------------------------7-(5)-|--5-7-7----------------|
E-----------------------------------|-----------------------|

E----------------|
B----------------|
G---------6-5-4--|
D-6-6-4-6--------|
A----------------|
E----------------|

E-------------------------------------|
B------------6---5--4-----------------|
D--6-6-4-6--4--4--4----6-6-4-6--------|
A-------------------------------------|
E-------------------------------------|

E------------------------------------------|
B------------------------------------------|
G---8-8-6-8--6-5-4b--8-8-6-8----6-5-4--22--|
D---6-6-4-6----------6-6-4-6----4-3-2--22--|
A--------------------------------------00--|
E------------------------------------------|
 
 Play Intro

E-------|-------|-------|-------|-------|-------|
B-----7-|----9--|----10-|----12-|----13-|----15-|
G---8---|--10---|---11--|---13--|---14--|---16--|
D-9-----|-11----|-12----|-14----|-15----|-17----|
A-------|-------|-------|-------|-------|-------|
E-------|-------|-------|-------|-------|-------|

E-------|-------|-------|-------------------------|
B----17-|---19--|---20--|----15--17-16-15---------|
G---18--|--20---|--21---|---16-----------17-16-15-|
D--19---|-21----|-22----|--17--15-----------------|
A-------|-------|-------|-------------------------|
E-------|-------|-------|-------------------------|

E-----------------------------------|
B-----------------------------------|
G--------------------------------2--|
D--17-16-15-14-12-10-9-7-5-3-2-1-0--|
A-----------------------------------|
E-----------------------------------|

E-------------------------|R
B-------------------------|E
G----2----5---7---5---2---|P
D-00---00--00--00--00-----|E
A-------------------------|A
E-------------------------|T (many times
                             fading out then 
                             play end chord)

E---x--|
B---2--|
G---2--|
D---0--|
A------|
E------|
    
    Thats the song.
Comments