Anti Villain - Slither Chords & Tabs

 

Slither Chords & Tabs

Anti Villain Chords & Tabs

Version: 1 Type: Tab 0 ratings
1 star 2 stars 3 stars 4 stars 5 stars
comments

Slither Tab


Velvet Revolver

Slither

antivillain single version



by : the unknown




bass/guitar2
e--------------------------------------------------------|
b--------------------------------------------------------|
g--------------------------------------------------------|
d--------------------------------------------------------|
a--------------------------------------------------------|
e-0--0-0-0--3-3-3--0-------------------------------------|


Guitar 1       
e--------------------------------------------------------|
b--------------------------------------------------------|
g----------------------5---------------------------------|
d------0-3-4-x--6-7-x--5-0--6-7--x-5-3-4-----------------|
a------0-3-4-x--6-7-x----0--6-7--x-5-3-4-----------------|
e--------------------------------------------------------|
                                                         |
 guitar 1 play 3x then play riff below                   |
                                                         |
e--------------------------8-----------------------------|
b------------6-7-----8-9------8-9-----8---6--------------|
g----------7------7------7---------7----7----------------|
d--------------------------------------------------------|
a--------------------------------------------------------|
e--------------------------------------------------------|


guitar 1
e--------------------------------------------------------|
b--------------------------------------------------------|
g-------------------5------------------------------------|
d--x-3-4--x--6-7--x-5-x-6-7--x-5-3-4---------------------|
a--x-3-4--x--6-7--x-5-x-6-7--x-5-3-4---------------------|
e--x-3-4--x--6-7--x---x-6-7--x-5-3-4---------------------|
                                                         |
                                    |
guitar 1 play 3 times and riff below                     |
                                                         |
e--------------------------------------------------------|
b--------------------------------------------------------|
g-----------------5--------------------------------------|
d--0-3-4-0-6-7--0---0-6-7-0--5-3-4-----------------------|
a--------------------------------------------------------|
e--------------------------------------------------------|


                                                         |
guitar 1   (4x) play 2 times for every riff above )      |
e--------------------------------------------------------|
b--------------------------------------------------------|
g-----------------5--------------------------------------|
d--0-3-4-0-6-7--0---0-6-7-0--5-3-4-----------------------|
a--------------------------------------------------------|
e--------------------------------------------------------|
  

   

guitar 1
e--------------------------------------------------------|
b--------------------------------------------------------|
g-------------------5------------------------------------|
d--x-3-4--x--6-7--x-5-x-6-7--x-5-3-4---------------------|
a--x-3-4--x--6-7--x-5-x-6-7--x-5-3-4---------------------|
e--x-3-4--x--6-7--x---x-6-7--x-5-3-4---------------------|
                                                         |
                                  
guitar 1 play 3 times and riff below                     
                                                         

guitar 1e--------------------------------------------------------|
b--------------------------------------------------------|
g-------------------5------------------------------------|
d--x-3-4--x--6-7--x-5-x-6-7--x-5-3-4---------------------|
a--x-3-4--x--6-7--x-5-x-6-7--x-5-3-4---------------------|
e--x-3-4--x--6-7--x---x-6-7--x-5-3-4---------------------|
                                                         |
                                |
guitar 1 play 3 times and riff below                     |
                                                         |
e--------------------------------------------------------|
b--------------------------------------------------------|
g-----------------5--------------------------------------|
d--0-3-4-0-6-7--0---0-6-7-0--5-3-4-----------------------|
a--------------------------------------------------------|
e--------------------------------------------------------|


guitar 1 or a 2nd guitarist (2x)
e--------------------------------------------------------|
b--------------------------------------------------------|
g---0---0-0-----0-0-----0-0--0-0-------------------------|
d---0---0-0--2--2-2--2--0-0--2-2--2----------------------|
a---2---2-2--2--0-0--2--2-2--0-0--2----------------------|
e---3---3-3--0--3-3--0--3-3--3-3--0----------------------|
                                                         |
guitar 1   (4x) play 2 times for every riff above )      |
e--------------------------------------------------------|
b--------------------------------------------------------|
g-----------------5--------------------------------------|
d--0-3-4-0-6-7--0---0-6-7-0--5-3-4-----------------------|
a--------------------------------------------------------|
e--------------------------------------------------------|
  


Guitar 1
[ Tab from: http://www.guitartabs.cc/tabs/a/anti_villain/slither_tab.html ]
e----x-8-10--x--7-8--------------------------------------|
b-------------------x-10-x--9-10----8--6-7---------------|
g---------------------------------7--7-----7-------------|
d--------------------------------------------------------|
a--------------------------------------------------------|
e--------------------------------------------------------|
                                                         |

    Little drum thing with bass pre solo for a while

Guitar 1 Solo

e----------10-------------10---------10----------10------|
b-----13fb----10-13fb--------10-13fb----10-13fb------10--|
g--------------------------------------------------------|
d--------------------------------------------------------|
a--------------------------------------------------------|
e--------------------------------------------------------|

e--------------------------------------------------------|
b---15fb-----15fb-12-15hb---15hb-15hb--15hb--(15fb)------|
g--------14----------------------------------------------|
d--------------------------------------------------------|
a--------------------------------------------------------|
e--------------------------------------------------------|

e-----------------15--(15hb)-15--(15hb)-15--(15hb)--15-14|
b-13-----15hb--13----------------------------------------|
g----14--------------------------------------------------|
d--------------------------------------------------------|
a--------------------------------------------------------|
e--------------------------------------------------------|

e--15-14hb-14-12-14-12-----12----------------------------|
b-----------------------15-----13-15-12-13----12-------13|
g------------------------------------------14----12hb----|
d--------------------------------------------------------|
a--------------------------------------------------------|
e--------------------------------------------------------|

e--------------------------------------------------------|
b--------------------------------------------------------|
g---12rb--10----12-10-------12hb-------------------------|
d------------12-------12-10------------------------------|
a--------------------------------------------------------|
e--------------------------------------------------------|

Guitar part 2 solo

e--10---------10-----------------------------------------|
b-----10-13hb---10-----------10-13-----------------------|
g------------------12-(12hb)-----------------------------|
d--------------------------------------------------------|
a--------------------------------------------------------|
e--------------------------------------------------------|

e---------------------------------------------------------|
b------10-13-----10-13-----10-13----------10-13-----10-13-|
g--12hb-----12hb-------12hb------12hb-12hb-----12hb-------|
d---------------------------------------------------------|
a---------------------------------------------------------|
e---------------------------------------------------------|

e------10-----------10----------|
b-13hb----13-10---------13-10---|
g---------------12hb------------|  Repeat 3x
d-------------------------------|
a-------------------------------|
e-------------------------------|

e------10-----------10--------13hb--13hb--13--10-----------|
b-13hb----13-10---------13-10--------------------13-10-13hb|
g---------------12hb---------------------------------------|
d----------------------------------------------------------|
a----------------------------------------------------------|
e----------------------------------------------------------|

e--10-----------------------------------------------------|
b-----13-10-----------------------------------------------|
g-----------12hb-10----12-10------------------------------|
d-------------------12-------12----------------10/12------|
a-------------------------------12-11-10-8----------------|
e------------------------------------------10-------------|


guitar 2 (2x)
e--------------------------------------------------------|
b--------------------------------------------------------|
g---0---0-0-----0-0-----0-0--0-0-------------------------|
d---0---0-0--2--2-2--2--0-0--2-2--2----------------------|
a---2---2-2--2--0-0--2--2-2--0-0--2----------------------|
e---3---3-3--0--3-3--0--3-3--3-3--0----------------------|
                                                         |
guitar 1   (4x) play 2 times for every riff above )      |
e--------------------------------------------------------|
b--------------------------------------------------------|
g-----------------5--------------------------------------|
d--0-3-4-0-6-7--0---0-6-7-0--5-3-4-----------------------|
a--------------------------------------------------------|
e--------------------------------------------------------|

e----x-8-10--x--7-8--------------------------------------|
b-------------------x-10-x--9-10----8--6-7---------------|
g---------------------------------7--7-----7-------------|
d--------------------------------------------------------|
a--------------------------------------------------------|
e--------------------------------------------------------|
                                                         |
Velvet Revolver's "Slither". This is a guitar 1 version by Anti-villain
(it is not on an album) Cover Song
Comments