Anti Villain - Anti Vill Pain Chords & Tabs

 

Anti Vill Pain Chords & Tabs

Anti Villain Chords & Tabs

Version: 1 Type: Tab 0 ratings
1 star 2 stars 3 stars 4 stars 5 stars
comments

Anti Vill Pain Tab

Band-Anti villain
Song-Anti Vill-Pain
Song submitted by- Gumdrop
This is a cool song. It was just written about a week ago. 
Its sick with a heavy metal footpedal. 
It's supposed to be written with a heavymetal footpedal.

INTRO
|----------------------------------------------------------------|
|----------------------------------------------------------------|
|----------------------------------------------------------------|
|----------------------------------------------------------------|
|----------------------------------------------------------------|
|--0---0---0---0---0---0---0---0---0----0---------------------|

On the part above play it like the main part.


MAIN
|----------------------------------------------------------------|
|----------------------------------------------------------------|
|----------------------------------------------------------------|
|----------------------------------------------------------------|
|----------------------------------------------------------------|
|------9---9---10----10---9---9-10-10-11---10---------------|

|----------------------------------------------------------------|
|----------------------------------------------------------------|
|----------------------------------------------------------------|
|----------------------------------------------------------------|
|----------------------------------------------------------------|
|------9---9---10----10---9---9-10-10-8---8-----------------|
[ Tab from: http://www.guitartabs.cc/tabs/a/anti_villain/anti_vill_pain_tab.html ]
SOLO
|----------------------------------------------------------------|
|----------------------------------------------------------------|
|----------------------------------------------------------------|
|----------------------------------------------------------------|
|----------------------------------------------------------------|
|-------4---7--6---5--4--3-----4---7--6-5-6------------------| Play this part twice*

|----------------------------------------------------------------|
|----------------------------------------------------------------|
|----------------------------------------------------------------|
|----------------------------------------------------------------|
|------6-9--8-7-6-9-10-11--11-12----------------------------||	
|----------------------------------------------------------------| 


|----------------------------------------------------------------|
|----------------------------------------------------------------|
|----------------------------------------------------------------|
|----------------------------------------------------------------|
|----------------------------------------------------------------|
|------9---9---10----10---9---9-10-10-11---10---------------|


LAST FINISHING
|----------------------------------------------------------------|
|----------------------------------------------------------------|
|----------------------------------------------------------------|
|----------------------------------------------------------------|
|----------------------------------------------------------------|
|------9---9---10----10---9---9-10-10-8---8-----------------|


END
|----------------------------------------------------------------|
|----------------------------------------------------------------|
|----------------------------------------------------------------|
|----------------------------------------------------------------|
|----------------------------------------------------------------|
|------9---9---10----10---9---9-10-10-8---7-----------------|

(**)
  w
Comments