Anti-nowhere League - Woman Chords & Tabs

 

Woman Chords & Tabs

Anti-nowhere League Chords & Tabs

Version: 1 Type: Tab 0 ratings
1 star 2 stars 3 stars 4 stars 5 stars
comments

Woman Tab

   
This is all i got for now once i've figured out the rest i'll post it. i love this song
hope you like it. if anything is fucked on it plz post the right tab.

standard tuning


intro
 e----------------|
 b----------------|
 g----------------|
 d----------------|
 a----------------|
 e-0-5-4-7-5-4-5--|
[ Tab from: http://www.guitartabs.cc/tabs/a/anti_nowhere_league/woman_tab.html ]
 e-----------------------------------------------------------------|
 b-----------------------------------------------------------------|
 g-----------------------------------------------------------------|
 d-----------------4-4-4-4-4-4-4-4-----------------2-2-2-2-2-2-2-2-|
 a-2-2-2-2-2-2-2-2-2-2-2-2-2-2-2-2-2-2-2-2-2-2-2-2-0-0-0-0-0-0-0-0-|
 e-0-0-0-0-0-0-0-0-----------------0-0-0-0-0-0-0-0-----------------|
pm . . . . . . . . . . . . . . . . . . . . . . . . . . . . . . . .

 e-----------------------------------------------|
 b-----------------------------------------------|
 g-----------------------------------------------|
 d-----------------4-4-4-4-4-4-4-4---------------|
 a-2-2-2-2-2-2-2-2-2-2-2-2-2-2-2-2---------------|
 e-0-0-0-0-0-0-0-0-----------------0-5-4-7-5-4-5-|
pm . . . . . . . . . . . . . . . .
Comments