Anti Nowhere League - So What Chords & Tabs

 

So What Chords & Tabs

Anti Nowhere League Chords & Tabs

Version: 1 Type: Tab 0 ratings
1 star 2 stars 3 stars 4 stars 5 stars
comments

So What Tab

   
Artist: Anti-Nowhere League
Title: So What !?
Album: Single
Transcribed by: Pierre Mathieu
Email: el_camello@metallica.com

The Chords
e----------------
b----------------
g-(7)------------
D--7-(3)-(8)-----
A--5--3---8------
E-----1---6------
D  F   A#

Intro
-5//7-777--5//7-777--5//7--5//7--5//7-777-------------------------------------
-3//5-555--3//5-555--3//5--3//5--3//5-555-------------------------------------

Verse
D
Well, I've been to Hasting and I've been to Brighton I've been to Eastport...
[ Tab from: http://www.guitartabs.cc/tabs/a/anti_nowhere_league/so_what_tab.html ]
-5//7-777--5//7-777--5//7--5//7--5//7-777-------------------------------------
-3//5-555--3//5-555--3//5--3//5--3//5-555-------------------------------------
So What   So What


Chorus
-5//7-777-5//7-777---
F                A#                  -3//5-555-3//5-555---
Well Who Cares, who cares what you do

77--5//7-777-5//7-777-5//7-5//7-5//7-777--
F                A#               55--3//5-555-3//5-555-3//5-3//5-3//5-555--
You    YOU       YOU  YOU  YOU  YOU

Intro  X2
Verse  X2
Chorus
Verse  X2
Chorus
Verse  X2
Chorus
Verse  X2 (No Vocals)
Chorus    (No Vocals)
Verse  X2
Chorus

That's it... very Easy, very fun ! If you have anymore Anti-Nowhere league tabs please
email (el_camello@hotmail.com) them to me.
Comments