Anti-nowhere League - Remember You Chords & Tabs

 

Remember You Chords & Tabs

Anti-nowhere League Chords & Tabs

Version: 1 Type: Tab 0 ratings
1 star 2 stars 3 stars 4 stars 5 stars
comments

Remember You Tab

          Artist: Anti-Nowhere League
          Title:  (We Will Not) Remember You
          Album:  We Are the League
          Transcribed by: Pierre Mathieu
          Email: el_camello@hotmail.com
          
          ... = Palm-Mute
          
          Intro
          -5-4--------------------------------------------------------------------------
          -3-2-3-5----------------------------------------------------------------------
          -----1-3----------------------------------------------------------------------
          
          Riff1
          -5-5-5-5-5-5-5-5-2-2-2-2-2-2-2-2----------------------------------------------
          -3-3-3-3-3-3-3-3-0-0-0-0-0-0-0-0----------------------------------------------
          ------------------------------------------------------------------------------
          
          Riff2
          ------------------------------------------------------------------------------
          -3-3-3-3-3-5-5-5-5-5----------------------------------------------------------
          -1-1-1-1-1-3-3-3-3-3----------------------------------------------------------
          
          Riff3
          -5-5-5-5-5-5-5-5-2-2-2-2-2-2-2-2----------------------------------------------
          -3-3-3-3-3-3-3-3-0-0-0-0-0-0-0-0----------------------------------------------
          ------------------------------------------------------------------------------
           . . . . . . . .
          
          Riff4
          ------------------------------------------------------------------------------
          -3-3-3-3-3-5-5-5-5-5----------------------------------------------------------
          -1-1-1-1-1-3-3-3-3-3----------------------------------------------------------
           . . . . .
          
          Lyrics (Song Written by Animal & Magoo 1982) :
          
          Intro
          Riff1 X2 Riff2 X2
          
          Riff3
          Well he's a fucked-up man with a fucked up life 
          Riff3
          Two dirty kids and an ugly wife 
          Riff4
          Standard clothes and standard car 
          Riff4
          Except of all that's what you are 
          Riff3
          The only time he's having fun 
          Riff3
          Is when he's up his neighbour's bum 
          Riff4
          Kids himself that he's a man 
          Riff4
          Never happy with a plan 
          Riff3
          The roads are bad, he's got no class 
          Riff3
          But when's his head's right up his arse 
          Riff4
          But we don't like the things you do 
          Riff4
          And we will not remember you 
          
          Riff1 X2 Riff2 X2
          Remember you 
          
          He tells his kids not to be bad 
          To grow up like their normal dad 
          Stinks up down that poultry shop 
          To buy his books and rubber cock 
          Hide behind the mask of grins 
          Covers all his fucking sins 
          But we don't like the things you do 
          And we will not remember you 
          
          Remember you 
          
          You're praying to your god of love 
          To replay all your fucking loves 
          But you're the meanest cunt in town 
          The road near you is fucking down 
          So don't expect respect from us 
          You fucked your life up, ? to us 
          And we don't like the things you do 
          And we will not remember you 
          
          Remember you 
          
          And we don't like the things you do 
          And we will not remember you 
          
          That's It ! Just Listen to the song for the rthythm. The Palm-Muting is optional, 
          I think it sound quite a bit better with it. 
          If you have any other Anti-Nowhere League/Diamond Head/Flotsam & Jetsam tabs, pls Post !!!
[ Tab from: http://www.guitartabs.cc/tabs/a/anti_nowhere_league/remember_you_tab.html ]
Comments