Anti Heros - You Cant Kill Chords & Tabs

 

You Cant Kill Chords & Tabs

Anti Heros Chords & Tabs

Version: 1 Type: Tab 0 ratings
1 star 2 stars 3 stars 4 stars 5 stars
comments

You Cant Kill Tab

Band: Anti-Heros
Song:You Can't Kill


tabbed by jam9383@yahoo.com


Intro

e--7/8-8-8-8-7/8-8-8-8-7/8-8-8-8---/5-5-5-5-5-------------------------|
B--7/8-8-8-8-7/8-8-8-8-7/8-8-8-8---/5-5-5-5-5--2-3/5-5----------------|
G----------------------------------------------2-3/5-5----------------|
D---------------------------------------------------------------------|
A---------------------------------------------------------------------|
E---------------------------------------------------------------------|

Verse

e---------------------------------------------------------------------|
B---------------------------------------------------------------------|
G-----------5-5-5--7-7--9-9-------------------------------------------|
D--7-7-7-7--5-5-5--7-7--9-9--7-7-7-7----------------------------------|
A--7-7-7-7--3-3-3--5-5--7-7--7-7-7-7----------------------------------|
E--5-5-5-5-------------------5-5-5-5----------------------------------|

e---------------------------------------------------------------------|
B---------------------------------------------------------------------|
G-----------5-5-5--7-7------------------------------------------------|
D--7-7-7-7--5-5-5--7-7--5-5--7-7-7-7----------------------------------|
A--7-7-7-7--3-3-3--5-5--5-5--7-7-7-7----------------------------------|
E--5-5-5-5--------------3-3--5-5-5-5----------------------------------|

Chorus

e---------------------------------------------------------------------|
B---------------------------------------------------------------------|
G--------------------5-5-5-5-7-7-7------------------------------------|
D--7-7-7-7-7-7-7-7---5-5-5-5-7-7-7--7-7-7-7---------------------------|
A--7-7-7-7-7-7-7-7---3-3-3-3-5-5-5--7-7-7-7---------------------------|
E--5-5-5-5-5-5-5-5------------------5-5-5-5---------------------------|
[ Tab from: http://www.guitartabs.cc/tabs/a/anti_heros/you_cant_kill_tab.html ]
e---------------------------------------------------------------------|
B---------------------------------------------------------------------|
G-------------------5-5-5-5-------------------------------------------|
D--7-7-7-7-7-7-7-7--5-5-5-5--5-5-5--7-7-7-7---------------------------|
A--7-7-7-7-7-7-7-7--3-3-3-3--5-5-5--7-7-7-7---------------------------|
E--5-5-5-5-5-5-5-5-----------3-3-3--5-5-5-5---------------------------|

Solo 1

e---------------------------------------------------------------------|
B---------------------------------------------------------------------|
G--------------7-9-10-9-8-7-----7-----------7-9----10b-10b-9----------|
D--7-7-7-7-10-----------------10---7---7-10-----10-----------10-7-----|
A---------------------------------------------------------------------|
E---------------------------------------------------------------------|

e---------------------------------------------------------------------|
B---------------------------------------------------------------------|
G----------------------------7-9-9-9b--7------------------------------|
D-5-7-7-5-7-7--5-7-7---7-10--------------10-7-------------------------|
A---------------------------------------------------------------------|
E---------------------------------------------------------------------|

Solo 2

e---------------------------------------------------------------------|
B-11-11-11------------------------------------------8---8---8---8-----|
G-12-12-12--12-9-------------9-9-12-9---------------10b-10b-10b-10b---|
D----------------12-10-12-12-----------12-10-7------------------------|
A---------------------------------------------------------------------|
E---------------------------------------------------------------------|

e---------------------------------------------------------------------|
B--8---8---8---8--------14-12-11--------------------------------------|
G--10b-10b-10b-10b---------------12-9----9----------------------------|
D-------------------------------------12---10-7~----------------------|
A---------------------------------------------------------------------|
E---------------------------------------------------------------------|


any comments/corrections needed contact me, please rate
Comments