Anti Heros - Thats Right Chords & Tabs

 

Thats Right Chords & Tabs

Anti Heros Chords & Tabs

Version: 1 Type: Tab 0 ratings
1 star 2 stars 3 stars 4 stars 5 stars
comments

Thats Right Tab

Band:Anti-Heros
Song:That's Right

tabbed by jam9383@yahoo.com


Intro

e---------------------------------------------------------------------|
B---------------------------------------------------------------------|
G-------------------------------9-9-9-9-------------------------------|
D----7-----7--------7-------7---9-9-9-9-------------------------------|
A----7-----7--------7-------7---7-7-7-7-------------------------------|
E----5-----5--------5-------5-----------------------------------------|

Verse

e---------------------------------------------------------------------|
B---------------------------------------------------------------------|
G-----5--7------------5--7-----------5--7--------9-9-9-9--------------|
D--7--5--7--5--5---7--5--7--5--5--7--5--7--5--5--9-9-9-9--------------|
A--7--3--5--5--5---7--3--5--5--5--7--3--5--5--5--7-7-7-7--------------|
E--5--------3--3---5--------3--3--5--------3--3-----------------------|

Bridge

e---------------------------------------------------------------------|
B---------------------------------------------------------------------|
G------5----------------5------------5--7-7-7-9-9-9-9-----------------|
D--7---5---7--7-----7---5--7-7---7---5--7-7-7-9-9-9-9-----------------|
A--7---3---7--7-----7---3--7-7---7---3--5-5-5-7-7-7-7-----------------|
E--5-------5--5-----5------5-5---5------------------------------------|

Chorus
[ Tab from: http://www.guitartabs.cc/tabs/a/anti_heros/thats_right_tab.html ]
e---------------------------------------------------------------------|
B---------------------------------------------------------------------|
G--9-9-9-9------9-9-9-9--------9-9-9-9--------------------------------|
D--9-9-9-9------9-9-9-9--------9-9-9-9--------------------------------|
A--7-7-7-7------7-7-7-7--------7-7-7-7--------------------------------|
E---------------------------------------------------------------------|

Solo

e---12-12-12-12-12--12-12-12-12--15-15-17-17-19-19--------------------|
B---10-10-10-10-10--10-10-10-10--15-15-17-17-19-19--------------------|
G---------------------------------------------------------------------|
D---------------------------------------------------------------------|
A---------------------------------------------------------------------|
E---------------------------------------------------------------------|

e--12-12-10-8--------------8-8---------------12-12-10-8---------------|
B--------------10-10---10-------10--8-10------------------10----------|
G---------------------------------------------------------------------|
D---------------------------------------------------------------------|
A---------------------------------------------------------------------|
E---------------------------------------------------------------------|

e--12p10-12p10-12p10-12p10-12--12-12-12-12-12-10-12~------------------|
B---------------------------------------------------------------------|
G---------------------------------------------------------------------|
D---------------------------------------------------------------------|
A---------------------------------------------------------------------|
E---------------------------------------------------------------------|

any comments/corrections contact me, please rate
Comments