Anti Heros - Jennifer Chords & Tabs

 

Jennifer Chords & Tabs

Anti Heros Chords & Tabs

Version: 1 Type: Tab 0 ratings
1 star 2 stars 3 stars 4 stars 5 stars
comments

Jennifer Tab

Band:Anti-Heros
Song:Jennifer


tabbed by jam9383@yahoo.com


Verse(Intro same as Verse but Palm muted)

x3
e---------------------------------------------------------------------|
B---------------------------------------------------------------------|
G---------------5-5-5-5-5-5-------------5-5-5-5-5-5-------------------|
D--5-5-5-5-5-5--5-5-5-5-5-5-2-2-2-2-2-2-5-5-5-5-5-5-------------------|
A--5-5-5-5-5-5--3-3-3-3-3-3-2-2-2-2-2-2-3-3-3-3-3-3-------------------|
E--3-3-3-3-3-3--------------0-0-0-0-0-0-------------------------------|

e---------------------------------------------------------------------|
B---------------------------------------------------------------------|
G-7-7-7-7-7-7-5-5-5-5-5-5-------------5-5-5-5-5-----------------------|
D-7-7-7-7-7-7-5-5-5-5-5-5-5-5-5-5-5-5-5-5-5-5-5-----------------------|
A-5-5-5-5-5-5-3-3-3-3-3-3-5-5-5-5-5-5-3-3-3-3-3-3-2-0-2---------------|
E-------------------------3-3-3-3-3-3---------------------------------|

Chorus

e---------------------------------------------------------------------|
B---------------------------------------------------------------------|
G---------------7-7-7-7-7---------------------------------------------|
D-2-2-2-2-2-2-7-7-7-7-7-7---------------------------------------------|
A-2-2-2-2-2-2-5-5-5-5-5-5---------------------------------------------|
E-0-0-0-0-0-0---------------------------------------------------------|
[ Tab from: http://www.guitartabs.cc/tabs/a/anti_heros/jennifer_tab.html ]
e---------------------------------------------------------------------|
B---------------------------------------------------------------------|
G------------------3-3-3-3-3-3-3-3-3-3--------------------------------|
D--2-2-2-2-2-2-----2-2-2-2-3-2-2-2-2-2--------------------------------|
A--2-2-2-2-2-2-----0-0-0-0-0-0-0-0-0-0--------------------------------|
E--0-0-0-0-0-0-2-3----------------------------------------------------|

e---------------------------------------------------------------------|
B---------------------------------------------------------------------|
G---------------------------------------------------------------------|
D-4-4-4-4-4-4-5-4-4-4-4-4-7-7-7-7-7-7-7-7-----------------------------|
A-2-2-2-2-2-2-2-2-2-2-2-2-7-7-7-7-7-7-7-7-----------------------------|
E-------------------------5-5-5-5-5-5-5-5-----------------------------|


Solo
e---------------------------------------------------------------------|
B-----------5-----------5------------------------5-----5/6/8/10/12~---|
G----4--7------7~----7-----7p5-4-5~--------4--7-----7-----------------|
D--5------------------------------------5-----------------------------|
A---------------------------------------------------------------------|
E---------------------------------------------------------------------|

e---------------------------------------------------------------------|
B-12-13-13-15-13-12-------15b-13-13-12-----13-12----13-12-12b---------|
G-------------------14-12---------------14-------14-------------------|
D---------------------------------------------------------------------|
A---------------------------------------------------------------------|
E---------------------------------------------------------------------|

e---------------------------------------------------------------------|
B-13-12--10-13~---12~---10~---8~----13b/3~----------------------------|
G---------------------------------------------------------------------|
D---------------------------------------------------------------------|
A---------------------------------------------------------------------|
E---------------------------------------------------------------------|


comments and corrections contact me rate please
Comments