Anti Flag - Youve Got To Die For The Government Chords & Tabs

 

Youve Got To Die For The Government Chords & Tabs

Anti Flag Chords & Tabs

Version: 1 Type: Tab 0 ratings
1 star 2 stars 3 stars 4 stars 5 stars
comments

Youve Got To Die For The Government Tab

This is the right way to play You've Got To Die For The Government.

(Pm means Palm Muting, and the dots mean that you palm mute those power chords. If you
don't know how to palm mute, lightly rest your picking hand at the base of the strings,
and then play the chord with your hand down. This should create the sort of muffled
effect you hear on the CD).

Chorus:

|--------------------------------------------------|
|--------------------------------------------------|
|--6-6-6-------------------6-6-6-------9-9-9-9-4-4-|
|--6-6-6-7-7-7-2-2-2-4-4-4-6-6-6-7-7-7-9-9-9-9-4-4-| x2
|--4-4-4-7-7-7-2-2-2-4-4-4-4-4-4-7-7-7-7-7-7-7-2-2-|
|--------5-5-5-0-0-0-2-2-2-------5-5-5-------------|

Verse:

|--x-x-x-x-x-x-x-x-x-x-x-x-x-x-x-x-|
|--x-x-x-x-x-x-x-x-x-x-x-x-x-x-x-x-|
|--x-x-x-x-x-x-x-x-x-x-x-x-x-x-x-x-|
|----------------------------------|
|----------------------------------|
|----------------------------------|

Then guitar 2 comes in with this every four pick scratches:

|----------|
|----------|
|------6-6-|
|------6-6-|
|------4-4-|
|----------|

Then:
[ Tab from: http://www.guitartabs.cc/tabs/a/anti_flag/youve_got_to_die_for_the_government_tab.html ]
|------------------------------------------------------------|
|------------------------------------------------------------|
|--6-6-6-6-6-6-6-6-6-6-6-6-6-6-6-6-6-6-6-6-6-6-6-6-6-6-6-6-6-|
|--6-6-6-6-6-6-6-6-6-6-6-6-6-6-6-6-6-6-6-6-6-6-6-6-6-6-6-6-6-|
|--4-4-4-4-4-4-4-4-4-4-4-4-4-4-4-4-4-4-4-4-4-4-4-4-4-4-4-4-4-|
|------------------------------------------------------------|
       Pm.........     Pm.........     Pm.     Pm.

Breakaway (I don't need you to tell me what to do!)

|--------------------------|
|--------------------------|
|--6-6-6-6-6-6-------------|
|--6-6-6-6-6-6-7-7-7-7-7-7-|x3
|--4-4-4-4-4-4-7-7-7-7-7-7-|
|--------------5-5-5-5-5-5-|

4th time:

|----------------------------------------------|
|----------------------------------------------|
|--6-6-6-6-6-6---------------------------------|
|--6-6-6-6-6-6-7-7-7-7-7-7-7-7-7-7-7-7-7-7-7-7-|
|--4-4-4-4-4-4-7-7-7-7-7-7-7-7-7-7-7-7-7-7-7-7-|
|--------------5-5-5-5-5-5-5-5-5-5-5-5-5-5-5-5-|

Then:

Breakaway Pt 2

|--------------------------------------------------|
|--------------------------------------------------|
|--6-6-6-------------------6-6-6-------9-9-9-9-4-4-|
|--6-6-6-7-7-7-2-2-2-4-4-4-6-6-6-7-7-7-9-9-9-9-4-4-|
|--4-4-4-7-7-7-2-2-2-4-4-4-4-4-4-7-7-7-7-7-7-7-2-2-|
|--------5-5-5-0-0-0-2-2-2-------5-5-5-------------|
Pm.................................................

|--------------------------------------------------|
|--------------------------------------------------|
|--6-6-6-------------------6-6-6-------9-9-9-9-4-4-|
|--6-6-6-7-7-7-2-2-2-4-4-4-6-6-6-7-7-7-9-9-9-9-4-4-|
|--4-4-4-7-7-7-2-2-2-4-4-4-4-4-4-7-7-7-7-7-7-7-2-2-|
|--------5-5-5-0-0-0-2-2-2-------5-5-5-------------|
Pm.....................................

Order:

Chorus
Verse
Chorus
Verse
Chorus
Breakaway
Breakaway Pt2
Chorus over and over until it fades out completely.
Comments