Anti-flag - When You Dont Control Your Government People Want To Kill You Chords & Tabs

 

When You Dont Control Your Government People Want To Kill You Chords & Tabs

Anti-flag Chords & Tabs

Version: 1 Type: Tab 0 ratings
1 star 2 stars 3 stars 4 stars 5 stars
comments

When You Dont Control Your Government People Want To Kill You Tab

   
-------------------------------------------------------------------------------
   When you don't control your government people want to kill you - Anti-Flag
-------------------------------------------------------------------------------
Tabbed by: John (Loudboy) 
Email: john@rapid-design.net
Website: www.rapid-design.net

Tuning:Standard Tuning (E-A-D-G-B-E) 

Intro
e|-00-0-00-0--00-0-00-0--0---------------------------------------------------|
B|-11-1-11-1--00-0-00-0--1---------------------------------------------------|
G|-22-2-22-2--00-0-00-0--2---------------------------------------------------|
D|-22-2-22-2-------------3---2-----------------------------------------------|
A|-00-0-00-0-----------------3-2---------------------------------------------|
E|-xx-x-xx-x-------------------3---------------------------------------------|

Verse (play 2x 2nd time palm mute the final (1-3-3) power chord)
e|---------------------------------------------------------------------------|
B|---------------------------------------------------------------------------|
G|-----------------------------55-77-----------------------------------------|
D|-77777777--55555555-33333333-55-77--77777777--55555555-333333333333333-----|
A|-77777777--55555555-33333333-33-55--77777777--55555555-333333333333333-----|
E|-55555555--33333333-11111111--------55555555--33333333-111111111111111-----|

Verse Part 2 (sorta hard to hear: and pretty fast)
e|---------------------------------------------------------------------------|
B|---------------------------------------------------------------------------|
G|--------------------------------777-55-44-------------------5--------------|
D|-77777777--55-45-55-45-55555555-555-33-22-555555555-55-7-57-3-5-33333333---|
A|-77777777--55-23-55-23-33333333-----------555555555-33-5-35---3-33333333---|
E|-55555555--33----33-----------------------333333333-------------11111111---|

e|---------------------------------------------------------------------------|
B|---------------------------------------------------------------------------|
G|-------------------------------------------------777-55-44-----------------|
D|--------------------7777777-55-45-55-45-55555555-555-33-22-55555555-55-7-57|
A|---3---3---5---7----7777777-55-23-55-23-33333333-----------55555555-33-5-35|
E|-3---3---3---3---3--5555555-33----33-----------------------33333333--------|

e|---------------------------------------------------------------------------|
B|---------------------------------------------------------------------------|
G|-5-------------------------------------------------------------------------|
D|-3-5-33333333-33333333-3333-3333-33333333----------------------------------|
A|---3-33333333-33333333-3333-3333-33333333----------------------------------|
E|-----11111111-11111111-1111-1111-11111111----------------------------------|

Bridge Thing (cool hehe :D)
e|---------------------------------------------------------------------------|
B|---------------------------------------------------------------------------|
G|---------------------------------------------------------------------------|
D|-------------------------------------------12-10-9-7-97--10-9-7-5-754------|
A|-7--9--10-12--14-14---7--9--10-12--14-14---10-8--7-5-75--8--7-5-3-532------|
E|-5--7--8--10--12-12---5--7--8--10--12-12-----------------------------------|
[ Tab from: http://www.guitartabs.cc/tabs/a/anti_flag/when_you_dont_control_your_government_people_want_to_kill_you_tab.html ]
e|--------------------------111111111----------------------------------------|
B|--------------------------111111111----------------------------------------|
G|--------------------------222222222----------------------------------------|
D|-7-5-3--------------------333333333-2--------------------------------------|
A|-7-5-3--77777777-77777777-----------3-2------------------------------------|
E|-5-3-1--55555555-33333333-------------3------------------------------------|
pm        ******** ********

Repeat the verse part one and part 2 again

Solo
e|---------------------------------------------------------------------------|
B|---------------------------------------------------------------------------|
G|-8b-8-8b-8b-8-8b-8b8b8b8b8b---12---10--9--10--12---------------------------|
D|----------------------------10--10---10-10--10----12--10--9--10--12--------|
A|------------------------------------------------10--10--10-10--10----------|
E|---------------------------------------------------------------------------|

e|---------------------------------------------------------------------------|
B|------------------9/10-10-10-10-10--12--13-12--13-12--13-12--13-12---10-10-|
G|-8b8b8b8b8b8b8b8b----------------------------12-----12-----12-----12-------|
D|---------------------------------------------------------------------------|
A|---------------------------------------------------------------------------|
E|---------------------------------------------------------------------------|

e|---------------------------------------------------------------------------|
B|-10------------------------------------------------------------------------|
G|----12-10-10-9-9-----------------------------------------------------------|
D|---------------------------------------------------------------------------|
A|---------------------------------------------------------------------------|
E|---------------------------------------------------------------------------|

e|---------------------------------------------------------------------------|
B|---------------------------------------------------------------------------|
G|-----------------------------------------------------------------x2--------|
D|---7p5h7p5h7p5h7p5-5p3h5p3h5p3h5p3-3p2h3p2h3p2h3p2-------------------------|
A|---------------------------------------------------------------------------|
E|---------------------------------------------------------------------------|

Outro
e|---------------------------------------------------------------------------|
B|---------------------------------------------------------------------------|
G|---------------------------------------------------------------------------|
D|-777777777-55555555-3333333333333333-77777777-55555555-333333333333333-----|
A|-777777777-55555555-3333333333333333-77777777-55555555-333333333333333-----|
E|-555555555-33333333-1111111111111111-55555555-33333333-111111111111111-----|

e|---------------------------------------------------------------------------|
B|---------------------------------------------------------------------------|
G|---------------------------------------------------------------------------|
D|-------------------------------------------------------------3-------------|
A|-77777777-55555555-3333333333333333--77-77-9-10-10-10-10-10--3-------------|
E|-55555555-33333333-1111111111111111--55-55-7-8--8--8--8--8---1-------------|
Comments