Anti-flag - When You Dont Control Your Government People Want To Kill You Chords & Tabs

 

When You Dont Control Your Government People Want To Kill You Chords & Tabs

Anti-flag Chords & Tabs

Version: 1 Type: Bass Tab 0 ratings
1 star 2 stars 3 stars 4 stars 5 stars
comments

When You Dont Control Your Government People Want To Kill You Bass Tab

Band- Anti-Flag
Bassist- #2
Album- Terror State
Song- When you don't control your government people want to kill you
Transcribed by-Evan Braswell
Tuning-Standard

H-hammer on
P-pull of
/-slide
~-hold note

#----------------------------------PLEASE NOTE--------------------------------#
#This file is the author's own work and represents their interpretation of the#
#song. You may only use this file for private study, scholarship, or research.#
#-----------------------------------------------------------------------------#
#-- File created with Instab - http://www.pconline.com/~smcarey/instab.html --#

VERSE
G:------------------------------------------------------------------------------|
D:------------------------------------------------------------------------------|
A:-3--------------------------------------------3-3-----5-5---------------------|
E:----3----5-5-5-5-5-5-3-3-3-3-3-3-1-1-1-1-1-1----------------------------------|

G:------------------------------------------------------------------------------|
D:----------------------------------------5p3---5p3-----------------------------|
A:--------------------------------------------5-----5---------------------------|
E:-5-5-5-5-5-5-3-3-3-3-3-3-1-1-1-1-1-1-1--------------3-------------------------|

G:------------------------------------------------------------------------------|
D:------------------------------------------------------------------------------|
A:---------------------------------------3-3--5-5-------------------------------|
E:-5-5-5-5-5-5-3-3-3-3-3-3-1-1-1-1-1-1------------------------------------------|

G:--------------------------------------------------------------------|
D:--------------------------------------------------------------------|
A:--------------------------------------------------------------------|
E:-5-5-5-5-5-5-3-3-3-3-3-3-1-1-1-1-1-1-1-1-1-1-1-1-1-1-1-1------------|

CHORUS
G:------------------------------------------------------------------------------|
D:---------------------------------------------------5-5-3-3-2-2----------------|
A:----------------------0h3---0h3--3-3-3-3-3-3-3-3---------------3--------------|
E:-5-5-5-5-5-5-5-5--0h3-----3---------------------------------------------------|

[ Tab from: http://www.guitartabs.cc/tabs/a/anti_flag/when_you_dont_control_your_government_people_want_to_kill_you_btab.html ]
G:----------------------------------------------------------------------------|
D:----------------------------------------------------------------------------|
A:---------------------3-3/-5-5/-7-7/-3---------------------0-3-0-3-0-5-0-7-0-|
E:-3-3-3-3-3-3-3-3------------------------1-1-1-1-1-1-1-1---------------------|

2nd ending to chorus
G:-------------------------------|
D:-------------------------------|
A:-------------------------------|
E:-1-1-1-1-1-1-1-1---------------|

Bridge 1
G:----------------------------------------------------------------------------|
D:----------------------------------------------------------------------------|
A:-0-2-3-5-7-7---0-2-3-5-7-7-----10-8-7-5-7-5--8-7-5-3-5-3-2------0~----------|
E:-------------------------------------------------------------------3~---1~--|

G:----------------------------------------------------------------------------|
D:----------------------------------------------------------------------------|
A:----------------------------------------------------------3-----------------|
E:-5-5-5-5-5-5-5-5-3-3-3-3-3-3-3-3-1-1-1-1-1-1-1-1-1-1-1-1-----3--------------|

Verse
Chorus (at the end of the chorus stop and then slide down from the 12th fret)

During the Solo
G:------------------------------------------------------------------|
D:------------------------------------------------------------------|
A:------------------------------------------------------------------|
E:-5-5-5-5-5-5-5-5-3-3-3-3-3-3-3-3-1-1-1-1-1-1-1-1-1-1-1-1--------- |


G:---------------------------------------------------------------------------|
D:---------------------------------------------------------------------------|
A:-3-3-3-3-3-3-3-3-3-3-3-3---------------------------------------------------|
E:-------------------------3-3-3-3-3-3-3-3-3-3-3-3---------------------------|

G:----------------------------------------------------------|
D:----------------------------------------------------------|
A:----------------------------------------------------------|
E:-3-3-3-3-3-3-3-3-3-3-3-3-3-3-3-3-5~--5-x8--3-x8--1-x16----|

Outro
G:-------------------------------|
D:-------------------------------|
A:-------------------------------|x2
E:-5-x8- 3-x8--1-x16-------------|

G:------------7-9-10-9-7-10-9-7-----7-------------|
D:-7-9-10------------------------10---10-9-7------|x2
A:------------------------------------------------|
E:------------------------------------------------|

G:----------------------------|
D:-7-7-7-7--9-9-9-9-9-9--10~--|
A:----------------------------|
E:----------------------------|

Verse
Chorus
Bridge 1
Verse
Chorus
Solo
Outro
Comments