Anti-flag - Whats The Difference Chords & Tabs

 

Whats The Difference Chords & Tabs

Anti-flag Chords & Tabs

Version: 1 Type: Tab 0 ratings
1 star 2 stars 3 stars 4 stars 5 stars
comments

Whats The Difference Tab

this is not my tab, but I htough I'd post it here 

-------------------------------------------------------------------------------
			   WHAT'S THE DIFFERENCE - Anti-Flag
-------------------------------------------------------------------------------

By:Pancho

I made another mistake. I promise this one is right though!

% = Let Ring
<<< = Pick Slide

Intro 1 - Guitar 1 - 4x
e|--------------------------------------------------------------------
B|----9------9------9------7-7-5--------------------------------------
G|------8-------8-------8---6-----------------------------------------
D|--6------6------6---------------------------------------------------
A|--------------------------------------------------------------------
E|--------------------------------------------------------------------

Intro 1B - Guitar 2 - 1x - Comes in right after guitar 1 plays the Intro the first time
e|--------------------------------------------------------------------
B|--------------------------------------------------------------------
G|--------------------------------------------------------------------
D|-6%-----------------------------------------------------------------
A|-6%-----------------------------------------------------------------
E|-4%------------------------------------------------------------<<<|
[ Tab from: http://www.guitartabs.cc/tabs/a/anti_flag/whats_the_difference_tab.html ]
Intro 1C - Guitar 2 - 2x
e|--------------------------------------------------------------------
B|--------------------------------------------------------------------
G|----6--4------------------------------------------------------------
D|-6--6--4------------------------------------------------------------
A|-6--4--2------------------------------------------------------------
E|-4------------------------------------------------------------------

Verse - Guitar 1&2 - 3x                        Play the 3rd time
     /PM \     /PM \     /   PM   \     /  PM  \  /  PM  \   
e|------------------------------------|-------------------------------
B|------------------------------------|-------------------------------
G|-----------6-66666---4-4444444444---|-----------44444444--4---------
D|-6-66666---6-66666---4-4444444444---|-66666666--44444444--4---------
A|-6-66666---4-44444---2-2222222222---|-66666666--22222222--2---------
E|-4-44444----------------------------|-44444444------------------<<<|

Chorus - Guitar 1&2 - 3x                 Play the 3rd time
e|----------------------------|---------------------------------------
B|----------------------------|---------------------------------------
G|-6-4--6-4-------------------|--66-44--------------------------------
D|-6-4--6-4--66666666---------|--66-44--6-6-6-6-----------------------
A|-4-2--4-2--66666666---------|--44-22--6-6-6-6-----------------------
E|-----------44444444---------|---------4-4-4-4-----------------------

Then Guitar 1 plays Intro 1 while Guitar 2 plays Intro 1C - 2x

Bridge - Guitar 1&2 - 2x              Play first time     Play second time
e|----------------------------------|-------------------|-------------
B|----------------------------------|-------------------|-------------
G|-13-11-9-8--88888888---13-11-9-11-|-1313-13--1313-13--|-88888888----
D|-13-11-9-8--88888888---13-11-9-11-|-1313-13--1313-13--|-88888888----
A|-11--9-7-6--66666666---11--9-7--9-|-1111-11--1111-11--|-66666666----
E|----------------------------------|-------------------|-----------<<<--<<<-|

Then Guitar 1&2 play Verse
Then Guitar 1&2 play Chorus
Comments