Anti-flag - We Want To Be Free Chords & Tabs

 

We Want To Be Free Chords & Tabs

Anti-flag Chords & Tabs

Version: 1 Type: Tab 0 ratings
1 star 2 stars 3 stars 4 stars 5 stars
comments

We Want To Be Free Tab

   
-------------------------------------------------------------------------------
			     We Want to be Free - Anti-Flag
-------------------------------------------------------------------------------
Tabbed by: Testy Cal
Email: au_fait@sbcglobal.net

This song hadn't been tabbed probably because everyone thinks Anti-Flag uses Standard
Tuning, but they don't. They tune down a half step. Make sure you notice the palm mutes.
Overall, it's a quick and really easy song to play, so have fun with it. It might be a
little confusing at first, but I tried to make it as clean and neat as possible


Tuning: Down one half step (Eb Ab Db Gb Bb Eb)

(Intro) Guitar One

e|--------------------------------------------------------------------------|
B|--------------------------------------------------------------------------|
G|-------------------------------------7-7----------------------------------|
D|-----2-2-----5-5-----2-2-----5-5-----7-7-----2-2-----5-5-----------2-2----|
A|-----2-2-----5-5-----2-2-----5-5-----5-5-----2-2-----5-5-----------2-2----|
E|-----0-0-----3-3-----0-0-----3-3-------------0-0-----3-3---15\-----0-0----|

(Intro continued)

e|----------------|----------------------------------------------|
B|----------------|--8-7-------8-7-------8-7------------7--------|
G|-------------7--|------9~7-7-----9~7-7-----9~7-7--9-7---9-7----|
D|-----5-5-----7--|---------9---------9---------9----------------|
A|-----5-5-----5--|----------------------------------------------|
E|-----3-3--------|----------------------------------------------|

(Intro continued)

e|------------------------------------------------|
B|-----8-7-------8-7------8-7------------7--------|
G|---------9~7-7-----9~7-7----9~7-7--9-7---9-7----|
D|------------9---------9--------9----------------|
A|------------------------------------------------|
E|------------------------------------------------|

(Intro) Guitar Two

e|--------------------------------------------------------------------|
B|--------------------------------------------------------------------|
G|-------------------------------------7-7----------------------------|
D|-----2-2-----5-5-----2-2-----5-5-----7-7-----2-2-----5-5-----2-2----|
A|-----2-2-----5-5-----2-2-----5-5-----5-5-----2-2-----5-5-----2-2----|
E|-----0-0-----3-3-----0-0-----3-3-------------0-0-----3-3-----0-0----|

(Intro continued)
                                                       M M
e|----------------|------------------------------------------------|
B|----------------|------------------------------------------------|
G|-------------7--|--9----12----9----7------9----12----7-7-7-------|
D|-----5-5-----7--|--9-x5-12-x5-9-x5-7-x5---9-x5-12-x5-7-7-7-x4----|
A|-----5-5-----5--|--7----10----7----5------7----10----5-5-5-------|
E|-----3-3--------|------------------------------------------------|
[ Tab from: http://www.guitartabs.cc/tabs/a/anti_flag/we_want_to_be_free_tab.html ]
(Intro continued)
                                         M M
e|---------------------------------------------------|
B|---------------------------------------------------|
G|-----9----12----9----7------9----12----7-7-7-------|
D|-----9-x5-12-x5-9-x5-7-x5---9-x5-12-x5-7-7-7-x4----|
A|-----7----10----7----5------7----10----5-5-5-------|
E|---------------------------------------------------|

(Verse) Both Guitars

e|------------------------------------|
B|------------------------------------|
G|-----9-----7---------9-----7--------|
D|-----9-x12-7-x12-----9-x12-7-x12----|
A|-----7-----5---------7-----5--------|
E|------------------------------------|

(Chorus) Both Guitars
                                         M M      M
e|--------------------------------------------------------|
B|--------------------------------------------------------|
G|-----9----12----9----7------9----12----7-7-7----7-------|
D|-----9-x5-12-x5-9-x5-7-x5---9-x5-12-x5-7-7-7-x3-7-x4----|
A|-----7----10----7----5------7----10----5-5-5----5-------|
E|--------------------------------------------------------|

(Chorus continued)
                                         M M
e|---------------------------------------------------|
B|---------------------------------------------------|
G|-----9----12----9----7------9----12----7-7-7-------|
D|-----9-x5-12-x5-9-x5-7-x5---9-x5-12-x5-7-7-7-x4----|
A|-----7----10----7----5------7----10----5-5-5-------|
E|---------------------------------------------------|

(Bridge) Both Guitars
                 M                 M                 M
e|------------------------------------------------------------|
B|------------------------------------------------------------|
G|-----7----5------------7----5------------7----5-------------|
D|-----7-x6-5-x6-2-------7-x6-5-x6-2-------7-x6-5-x6-2--------|
A|-----5----3----2-x16---5----3----2-x16---5----3----2-x16----|
E|---------------0-----------------0-----------------0--------|

(Bridge continued into intro) Both Guitars

e|------------------------------------------------------------------------|
B|------------------------------------------------------------------------|
G|-----7----5--------------------------------------7-7--------------------|
D|-----7-x6-5-x6---2-2-----5-5-----2-2-----5-5-----7-7-----2-2-----5-5----|
A|-----5----3------2-2-----5-5-----2-2-----5-5-----5-5-----2-2-----5-5----|
E|-----------------0-0-----3-3-----0-0-----3-3-------------0-0-----3-3----|

Guitar One

e|------------|
B|------------|
G|------------|
D|------------|
A|------------|
E|-----15\----|

Both Guitars

e|--------------------|
B|--------------------|
G|--------------------|
D|-----2-2-----5-5----|
A|-----2-2-----5-5----|
E|-----0-0-----3-3----|

End on

e|----------|
B|----------|
G|-----7----|
D|-----7----|
A|-----5----|
E|----------|


| /  slide up
| \  slide down
| h  hammer-on
| p  pull-off
| ~  vibrato
| +  harmonic
| x  Mute note
| M  Palm Mute
Comments