Anti-flag - Vieques Puerto Rico Bikini Revisited Chords & Tabs

 

Vieques Puerto Rico Bikini Revisited Chords & Tabs

Anti-flag Chords & Tabs

Version: 1 Type: Tab 0 ratings
1 star 2 stars 3 stars 4 stars 5 stars
comments

Vieques Puerto Rico Bikini Revisited Tab

Anti-Flag - Vieques Puerto Rico: Bikini Revisited

. - palm mute
\ - pick slide
~ - let ring

Intro
e|-----------------------------------------------|
B|-----------------------------------------------|
G|--66666666-88888888-99999999-1111111111111111--|(x4)
D|--66666666-88888888-99999999-1111111111111111--|
A|--44444444-66666666-77777777--9-9-9-9-9-9-9-9--|
E|-----------------------------------------------|
    ........ ........ ........  . . . . . . . .

Verse
e|----------------------------------------------|
B|----------------------------------------------|
G|--66-66666-88-88888-99-99999-1111-1111111111--|
D|--66-66666-88-88888-99-99999-1111-1111111111--|
A|--44-44444-66-66666-77-77777--9-9--9-9-9-9-9--|
E|----------------------------------------------|
    .. ..... .. ..... .. .....  . .  . . . . .

e|--------------------------------------------|
B|--------------------------------------------|
G|--66-66666-88-88888-9999999-11111111111111--|
D|--66-66666-88-88888-9999999-11111111111111--|
A|--44-44444-66-66666-7777777--9-9-9-9-9-9-9--|
E|--------------------------------------------|
    .. ..... .. ..... 

e|----------------------------------------------|
B|----------------------------------------------|
G|--66-66666-88-88888-99-99999-1111-1111111111--|(x2)
D|--66-66666-88-88888-99-99999-1111-1111111111--|
A|--44-44444-66-66666-77-77777--9-9--9-9-9-9-9--|
E|----------------------------------------------|
    
Chorus - Rhythm
e|---------------------------|
B|---------------------------|
G|--999999-888888--6--8-9----|(x4)
D|--999999-888888--x--x-x-7--|
A|--777777-666666--4--6-7-7--|
E|------------------------5--|

Chorus - Lead (come in last 2 times)
e|-----4---------4----|
B|------5---------5---|
G|--------------------|
D|--------------------|
A|--------------------|
E|--------------------|

Verse 2
e|-----------------------------------------|
B|-----------------------------------------|(x4)
G|--6666-66-8888-88-9999-99-11111111-1111--|
D|--6666-66-8888-88-9999-99-11111111-1111--|
A|--4444-44-6666-66-7777-77--9-9-9-9--9-9--|
E|-----------------------------------------|
    ....    ....    ....     . . . .  

e|-------------------------------------------------|
B|-------------------------------------------------|
G|--66-6-66-6-88-8-88-8-99-9-99-9-1111-11-1111-11--|
D|--66-6-66-6-88-8-88-8-99-9-99-9-1111-11-1111-11--|
A|--44-4-44-4-66-6-66-6-77-7-77-7--9-9--9--9-9--9--|
E|-------------------------------------------------|
    ..   ..   ..   ..   ..   ..    . .     . .  
[ Tab from: http://www.guitartabs.cc/tabs/a/anti_flag/vieques_puerto_rico_bikini_revisited_tab.html ]
e|--------------------------------------------|
B|--------------------------------------------|
G|--66666666-88888888-9999999-11111111111111--|
D|--66666666-88888888-9999999-11111111111111--|
A|--44444444-66666666-7777777--9-9-9-9-9-9-9--|
E|--------------------------------------------|
    ........ ........ 

Chorus - Rhythm
e|---------------------------|
B|---------------------------|
G|--999999-888888--6--8-9----|(x4)
D|--999999-888888--x--x-x-7--|
A|--777777-666666--4--6-7-7--|
E|------------------------5--|

Chorus - Lead (come in last 2 times)
e|-----4---------4----|
B|------5---------5---|
G|--------------------|
D|--------------------|
A|--------------------|
E|--------------------|

Bridge - Rhythm
e|-------------------------------------------------------------|
B|-------------------------------------------------------------|
G|--6~-----------6~----------6~----------6-66666666666666666---|
D|--6~-----------6~----------6~----------6-66666666666666666---|
A|--4~-----------4~----------4~----------4-44444444444444444---|
E|-------------------------------------------------------------|
                                           ........
Bridge - Lead
e|------2-1---1------4-2-1-2-----2-1---1-----------------------|
B|----------4------------------------4-------------------------|
G|----------------------------------------------------------\--|
D|----------------------------------------------------------\--|
A|----------------------------------------------------------\--|
E|-------------------------------------------------------------|

Bridge - Rhythm
e|-----------------------------------------------|
B|-----------------------------------------------|
G|--6~---------6------6-------6-666666666666666--|
D|--6~-----6-------6------6---6-666666666666666--|
A|--4~--44--44--44--44--44----4-444444444444444--|
E|-----------------------------------------------|
        ..  ..  ..  ..  ..      .........                                        

Bridge - Lead
e|------2-1---1-----------------------------------|
B|----------4-------------------------------------|
G|---------------------------------------------\--|
D|---------------------------------------------\--|
A|---------------------------------------------\--|
E|------------------------------------------------|

End
e|----------------------------------------------|
B|----------------------------------------------|
G|--66-66666-88-88888-99-99999-1111-1111111111--|(x3)
D|--66-66666-88-88888-99-99999-1111-1111111111--|
A|--44-44444-66-66666-77-77777--9-9--9-9-9-9-9--|
E|----------------------------------------------|

e|----------------------------------|
B|----------------------------------|
G|--66-66666-88-88888-99-99999-11~--|
D|--66-66666-88-88888-99-99999-11~--|
A|--44-44444-66-66666-77-77777--9~--|
E|----------------------------------|
Comments