Anti-flag - Turncoat Chords & Tabs

 

Turncoat Chords & Tabs

Anti-flag Chords & Tabs

Version: 3 Type: Tab 0 ratings
1 star 2 stars 3 stars 4 stars 5 stars
comments

Turncoat Tab

   
Tabbed by: CORY SLOAN
Email: sloanerboner17@netscape.net

Tuning: Down one whole step ON ALL STRINGS.

ACOUSTIC INTRO:
    G            Am          C         Em         C     C9    Am
e|--3-3----------000---------0-0------------------0000--------000-0------|
B|--3-3----------111---------1-1------------------1111--333-3-111-1------|
G|--0-0----------222---------0-0------------------0000--333-3-222-2------|
D|--0-0----------222---------2-2-------222--------2222--222-2-222-2------|
A|--2-2----------000---------3-3-------222--------3333--333-3-000-0------|
E|--3-3--------------------------------000-------------------------------|
       TURNCOAT!..  KILLER!..   LIAR!..   THIEF!  CRIMINAL...

   BAND JOINS IN HERE:                
e|-333333333---------------------|
B|-333333333---------------------|
G|-000000000---------------------|
D|-000000000---------------------|
A|-222222222---------------------|
E|-333333333---------------------|
...THE LAW___________   GO!!

INTRO, PART 2:
e|-------------------------------------------|
B|----8-7-8----8-7-10----5----3----1----1p0--|
G|-00-------00--------00---00---00---00------|
D|-------------------------------------------|
A|-------------------------------------------|
E|-------------------------------------------|

e|----------------------------------------------------------|
B|----8-7-8----8-7-10----5----3----5----7-8-let ring....----|
G|-00-------00--------00---00---00---00---------------------|
D|----------------------------------------------------------|
A|----------------------------------------------------------|
E|----------------------------------------------------------|
THE RYTHM GUITAR JUST STRUMS THE INTRO CHORDS ABOVE WHILE THE LEAD PLAYS THE
RIFF ABOVE.
[ Tab from: http://www.guitartabs.cc/tabs/a/anti_flag/turncoat_tab_ver_3.html ]
VERSE:
e|---------------------------------------------|-00000-0000-000000--0----|
B|---------------------------------------------|-11111-0000-111111--1----|
G|---------------------------------------------|-00000-1111-222222--0----|
D|--------------------55-5-55-5-55-5-55-5----X3|-22222-2222-222222--2----|
A|-55555555-77777777--33-3-33-3-33-3-33-3-5----|-33333-2222-000000--3----|
E|-33333333-55555555----------------------3----|-------XXXX--------------|
   PM...............  ..   ..   ..   ..

CHORUS: SAME AS THE INTRO.

ACOUSTIC BRIDGE(I'M NOT SURE OF WHAT THE TIMING IS, BUT YOU CAN FIGURE IT OUT):
   G            Am            Em             D
e|-333333333333-0000000000000-00000000000000-22222222222222--------------|
B|-333333333333-1111111111111-00000000000000-33333333333333--------------|
G|-000000000000-2222222222222-00000000000000-22222222222222--------------|
D|-000000000000-2222222222222-22222222222222-00000000000000--------------|
A|-222222222222-0000000000000-22222222222222-----------------------------|
E|-333333333333---------------00000000000000-----------------------------|

VERSE:
e|---------------------------------------------------0000000----------------|
B|---------------------------------------------------0000000----------------|
G|---------------------------------------------------0000000----------------|
D|-----------------------------------------222222222222222227--5-7-5-75-75-7|
A|-55-5-55-5-55-5-55-5-77-7-77-7-77-7-77-7-222222222222222225--3-5-3-53-53-5|
E|-33-3-33-3-33-3-33-3-55-5-55-5-55-5-55-5-00000000000000000----------------|
 PM..   ..   ..   ..   ..   ..   ..   ..   ..........

REPEAT CHORUS, THE OUTRO IS JUST REPEATING THE "INTRO, PART 2" THAT I TABBED OUT
ABOVE. YOU WILL END ON A G CHORD...REMEMBER THAT! OK THEN, THATS IT... HAVE FUN
PLAYING IT B/C TABBING IT OUT SUCKED FOR ME. LATER ONNNN!

| /  slide up
| \  slide down
| h  hammer-on
| p  pull-off
| ~  vibrato
| +  harmonic
| x  Mute note
=============================================================================
Comments