Anti-flag - Turncoat Chords & Tabs

 

Turncoat Chords & Tabs

Anti-flag Chords & Tabs

Version: 1 Type: Bass Tab 0 ratings
1 star 2 stars 3 stars 4 stars 5 stars
comments

Turncoat Bass Tab

   
Tabbed by Davey Jones

INTRO

G|----------------|
D|----------------|
A|----------------|
E|-111111111------|

INTRO PT 2

G|------------------------------------------------------------|
D|------------------------------------------------------------|
A|------------------------------11-00----00-------------------|
E|-1111111111-333333333--------33---33-11-33-11---------------|

G|------------------------------------------------------------|
D|------------------------------------------00----22----------|
A|-------------------------------11-00-11----33---33-00-------|
E|-1111111111-333333333---------------------------------------|

VERSE

G|------------------------------|---------|
D|------------------------------|------3--|
A|------------------------------|--1-1----|
E|-1111111111-333333333|------------------| THIS SECTION 3 TIMES
WHOLE VERSE 3 TIMES

G|-----------------------------------------------------------------------------|
D|-----------------------------------------------------------------------------|
A|-----------------------------------------------------------------------------|
E|-111111111-333333333-66666666-5555555-3333333-0000000------------------------|

CHORUS x2

G|--------------------|
D|--------------------|
A|----------1-1-000---|
E|-1-1-333------------|

G|------------------------------------------|
D|------------------------------------------|
A|------------------------------------------|
E|-666666-5555-3333-11111111111-------------|

BREAK

BRIDGE

G|----------------------------------------------------------------|
D|----------------------------------------------------------------|
A|---------------------------------------------------------3~1~---|
E|-111111111111-33333333333-000000000000--------------------------|

SPEED UP IF YOU LISTEN TO SONG
[ Tab from: http://www.guitartabs.cc/tabs/a/anti_flag/turncoat_btab.html ]
G|--------------------------------------|
D|--------------------------------------|
A|-3~1~3-1~-3-1~3-1-3-1-3-1-3-----------|
E|--------------------------------------|

CHORUS x1

COOL CHORUS

G|--------------------------------3-1-0----------------|
D|-----3-1-0---------0-1-3------------3----------------|
A|------------3-----3--------1-1----------000-0-4-5----|
E|-1-1---------333-------------------------------------|

G|------------------------------------------|
D|------------------------------------------|
A|------------------------------------------|
E|-666666-5555-3333-11111111111-------------|

OUTRO

G|------------------------------------------------------------|
D|------------------------------------------------------------|
A|------------------------------11-00----00-------------------|
E|-1111111111-333333333--------33---33-11-33-11---------------|

G|------------------------------------------------------------|
D|------------------------------------------00----22----------|
A|-------------------------------11-00-11----33---33-00-------|
E|-1111111111-333333333---------------------------------------|

G|------------------------------------------------------------|
D|------------------------------------------------------------|
A|------------------------------11-00----00-------------------|
E|-1111111111-333333333--------33---33-11-33-11---------------|

G|----------------------------------|
D|----------------------------------|
A|----------------------------------|
E|-1111111111-3333333333------------|

OUTRO PT 2

G|-10-10-9-9-77--------------------------------------|
D|-----------------10-10-8-8-7-7---------------------|
A|----------------------------------10-10-8-8--------|
E|---------------------------------------------------|    x3

G|--------------------|
D|--------------------|
A|--------------------|
E|-11111111111-1
Comments