Anti-flag - This Is The End For You My Friend Chords & Tabs

 

This Is The End For You My Friend Chords & Tabs

Anti-flag Chords & Tabs

Version: 1 Type: Tab

This Is The End For You My Friend Tab

   
-------------------------------------------------------------------------------
			     This is the end (for you my friend) - Anti-Flag
-------------------------------------------------------------------------------
Tabbed by: Conner
Aim: dSTrbdreDneck
Email: ritalinaddict04@yahoo.com

This is my first song im tabbing so rate me on how i did
If you get the rest of the song aim me or email me
Listen to the song the get the rythmn

Tuning: E a d g b E

 Intro:
e|---------------------------------------------------------------------------|
B|--------------------------------9/11-----------------------------9/11------|
G|---------------------------------------------------------------------------|
D|-----888888---33--4-4---888888--------888888---33--4-4---888888------------|
A|-----888888---33--4-4---888888--------888888---33--4-4---888888------------|
E|-----666666---11--2-2---666666--------666666---11--2-2---666666------------|
[ Tab from: http://www.guitartabs.cc/tabs/a/anti_flag/this_is_the_end_for_you_my_friend_tab.html ]
e|---------------------------------------------------------------------------|
B|--------------------------------9/11---------------------------------------|
G|---------------------------------------------------------------------------|
D|-----888888---33--4-4---888888--------888888---33--4-4---888888------------|
A|-----888888---33--4-4---888888--------888888---33--4-4---888888------------|
E|-----666666---11--2-2---666666--------666666---11--2-2---666666------------|

e|---------------------------------------------------------------------------|
B|--------------------------------9/11---------------------------------------|
G|---------------------------------------------------------------------------|
D|-----888888---33--4-4---888888--------888888---33--4-4---888888------------|
A|-----888888---33--4-4---888888--------888888---33--4-4---888888------------|
E|-----666666---11--2-2---666666--------666666---11--2-2---666666------------|

e|---------------------------------------------------------------------------|
B|---------------------------------------------------------------------------|
G|---------------------------------------------------------------------------|
D|---------------------------------------------------------------------------|
A|---------------------------------------------------------------------------|
E|---------------------------------------------------------------------------|


| /  slide up
| \  slide down
| h  hammer-on
| p  pull-off
| ~  vibrato
| +  harmonic
| x  Mute note
==============