Anti-flag - The Wto Kills Farmers Chords & Tabs

 

The Wto Kills Farmers Chords & Tabs

Anti-flag Chords & Tabs

Version: 1 Type: Bass Tab

The Wto Kills Farmers Bass Tab

The W.T.O. Kills Farmers - Anti-Flag

Verse:

G|-----6---8---6-8-10-8-6-5|
D|-3/8---8---8-------------|
A|-------------------------|
E|-------------------------|

G|-------------------------------------|
D|-------3-4-3h4-6-------3-4-3---3-----|
A|---4h6-------------4h6-------6---6-4-|x2
E|-6---------------6-------------------|

G|--------------------------------|
D|-4---6-4-3---3----3-------3-4-6-|
A|-----------6---6----6-4-6-------|
E|--------------------------------|

Chorus:

G|-----------------------------------------------------------|
D|-----------------------------------------------------------|
A|-----------------------------------------------------------|x2
E|-6-6-6-6-6-6--1-1-1-1-1-1-1--2-2-2-2-2-2-2-4-4-4-4-4-4-4-4-|

G|---------------------------------|
D|---3---3---4-3-----4-3-4---4-3-6-|
A|-----6---------4-----------------|
E|-6-------1-------2-------4-------|

G|------------------------------------------------------------|
D|-------------------------------4--3-4-6---------------------|
A|------------------------------------------------------3-6-3-|
E|-6-6-6-6-6-6-6-1-1-1-1-1-1-1-1----------6--1--2--4--4-------|

Verse:

G|-------------------------------------|
D|-------3-4-3h4-6-------3-4-3---3-----|
A|---4h6-------------4h6-------6---6-4-|x4
E|-6---------------6-------------------|
[ Tab from: http://www.guitartabs.cc/tabs/a/anti_flag/the_wto_kills_farmers_btab.html ]
G|--------------------------------|
D|-4---6-4-3---3----3-------3-4-6-|
A|-----------6---6----6-4-6-------|
E|--------------------------------|

Chorus:

G|-----------------------------------------------------------|
D|-----------------------------------------------------------|
A|-----------------------------------------------------------|x2
E|-6-6-6-6-6-6--1-1-1-1-1-1-1--2-2-2-2-2-2-2-4-4-4-4-4-4-4-4-|

G|---------------------------------|
D|---3---3---4-3-----4-3-4---4-3-6-|
A|-----6---------4-----------------|
E|-6-------1-------2-------4-------|

G|----------------------------------------|
D|-------------------------------4--3-4-6-|
A|----------------------------------------|
E|-6-6-6-6-6-6-6-1-1-1-1-1-1-1-1----------|

Bridge/Outro:

G|--------------------------|
D|--------------------------|
A|--------------------------|
E|-6--1--6--2-2-2-2-1-1-1-1-|


G|---------------------------------|
D|---3---3---4-3-----4-3-4---4-3-6-|
A|-----6---------4-----------------|x4
E|-6-------1-------2-------4-------|

G|----------------------------------------------------------------|
D|----------------------------------------------------------------|
A|-----------------------------------------8-8-8-8-9-9-9-9--------|x5
E|-6-6-6-6-1-1-1-1-2-2-2-2-4-4-4-4-6-6-6-6-----------------9-9-9-9|

G|--------6---6--|
D|----6/8---8---8|
A|-8-------------|
E|---------------|