Anti Flag - Thats Youth Chords & Tabs

 

Thats Youth Chords & Tabs

Anti Flag Chords & Tabs

Version: 2 Type: Tab 0 ratings
1 star 2 stars 3 stars 4 stars 5 stars
comments

Thats Youth Tab

Anti-Flag - That's Youth

Tabbed by: Guitarplayer136
E-mail: sk8erman_136@yahoo.com

Tuning: Standard
[ Tab from: http://www.guitartabs.cc/tabs/a/anti_flag/thats_youth_tab_ver_2.html ]
e|------------------------------------------|
B|------------------------------------------|
G|------------------------------------------|
D|-555555-44-000000-55----------------------|
A|---------------------000000-22-333333-0---|
E|----------------------------------------3-|

e|------------------------------------------------|
B|------------------------------------------------|
G|-777777-66--------77----------------------------|
D|-555555-44-777777-55----------------------------|
A|-----------555555----777777-99-101010101010-7-5-|
E|---------------------555555-77--8-8-8-8-8-8-5-3-|
Comments