Anti-flag - Tearing Everyone Down Live Chords & Tabs

 

Tearing Everyone Down Live Chords & Tabs

Anti-flag Chords & Tabs

Version: 1 Type: Tab 0 ratings
1 star 2 stars 3 stars 4 stars 5 stars
comments

Tearing Everyone Down Live Tab

   
Song: Tearing Everyone Down (live)
Band: Anti-Flag
Album: Mobilize
Track: 10
Tabber: dudczyk

This song is played on all distortion, no clean at all.
Key:
b = ment
< = pickslide
* = palm mute

Intro/Lead Guitar (Chris)
    (x4)        (x2)
e:----------|----------------------------------|
B:----------|----------------------------------|
G:----------|-666-4-6b6b6b-8-9-8-6-8-4b4b4b----|
D:---6--6-6-|----------------------------------|
A:-44-44-4--|----------------------------------|
E:----------|----------------------------------|

Intro/Rhythm Guitar (Justin)
                 (x2)
e:----------|----------------------------------|
B:----------|----------------------------------|
G:----------|-6-6666--------4-4444-------------|
D:----------|-6-6666-7-7777-4-4444-4-4444------|
A:----------|-4-4444-7-7777-2-2222-4-4444------|
E:----------|--------5-5555--------2-2222------|


Verse/Lead Guitar (Chris)
e:---------------------------------------------|
B:---------------------------------------------|
G:-66-66666-----------444-44444----------------|
D:-66-66666-777-77777-444-44444-444-44444------|
A:-44-44444-777-77777-222-22222-444-44444------|
E:----------555-55555-----------222-22222------|
      *****     *****     *****     *****

e:---------------------------------------------|
B:---------------------------------------------|
G:-666-66666-----------444-44444---------------|
D:-666-66666-777-77777-444-44444-4444444-------|
A:-444-44444-777-77777-222-22222-4444444-------|
E:-----------555-55555-----------2222222-------|
       *****     *****     ***** *******
   (x2)                               
e:-----------------------------------<---------|
B:-----------------------------------<---------|
G:-6-6666----------4-4444------------<---------|
D:-6-6666--7-7777--4-4444--4-4444----<---------|
A:-4-4444--7-7777--2-2222--4-4444----<---------|
E:---------5-5555----------2-2222----<---------|

Verse1/Rhythm Guitar (Justin)         
e:---------------------------------------------|
B:---------------------------------------------|
G:-6-------------4-----------------------------|
D:-6------7------4------4----------------------|
A:-4------7------2------4----------------------|
E:--------5-------------2----------------------|

e:---------------------------------------------|
B:---------------------------------------------|
G:-6-------------4-----------------------------|
D:-6------7------4------4444444----------------|
A:-4------7------2------4444444----------------|
E:--------5-------------2222222----------------|
                        *******
   (x2)                               
e:-----------------------------------<---------|
B:-----------------------------------<---------|
G:-6-6666----------4-4444------------<---------|
D:-6-6666--7-7777--4-4444--4-4444----<---------|
A:-4-4444--7-7777--2-2222--4-4444----<---------|
E:---------5-5555----------2-2222----<---------|

Prechorus/Lead Guitar (Chris) "Id like to see..."                           
e:---------------------------------------------|
B:---------------------------------------------|
G:-9-9999----------6-6666----------------------|
D:-9-9999--9-9999--6-6666--7-7777--------------|
A:-7-7777--9-9999--4-4444--7-7777--------------|
E:---------7-7777----------5-5555--------------|
  
                            (x2)
e:------------------------|-------|------------|
B:------------------------|-------|------------|
G:-9-9999----------6-6666-|-------|------------|
D:-9-9999--9-9999--6-6666-|-77-77-|-7-777-7-7--|
A:-7-7777--9-9999--4-4444-|-77-77-|-7-777-7-7--|
E:---------7-7777---------|-55-55-|-5-555-5-5--|

Prechorus/Rhythm Guitar (Justin) "Id like to see..."
e:---------------------------------------------|
B:---------------------------------------------|
G:-9-9999----------6-6666----------------------|
D:-9-9999--9-9999--6-6666--7-7777--------------|
A:-7-7777--9-9999--4-4444--7-7777--------------|
E:---------7-7777----------5-5555--------------|
  
                            (x2)
e:------------------------|-------|------------|
B:------------------------|-------|------------|
G:-9-9999----------6-6666-|-------|------------|
D:-9-9999--9-9999--6-6666-|-77-77-|-7-777-7-7--|
A:-7-7777--9-9999--4-4444-|-77-77-|-7-777-7-7--|
E:---------7-7777---------|-55-55-|-5-555-5-5--|

Chorus/Lead Guitar (Chris) "Tearing Everyone..."
     (x2)
e:---------------------------------------------|
B:---------------------------------------------|
G:-9-9999----------6-6666----------------------|
D:-9-9999--9-9999--6-6666--7-7777--------------|
A:-7-7777--9-9999--4-4444--7-7777--------------|
E:---------7-7777----------5-5555--------------|
[ Tab from: http://www.guitartabs.cc/tabs/a/anti_flag/tearing_everyone_down_live_tab.html ]
Chorus/Rhythm Guitar (Justin) "Tearing Everyone..."
    (x2)
e:---------------------------------------------|
B:---------------------------------------------|
G:-9-9999----------6-6666----------------------|
D:-9-9999--9-9999--6-6666--7-7777--------------|
A:-7-7777--9-9999--4-4444--7-7777--------------|
E:---------7-7777----------5-5555--------------|

Intro (Second Time Around)/Lead Guitar (Chris)
e:---------------------------------------------|
B:---------------------------------------------|
G:-666-4-6b6b6b-8-9-8-6-8-4b4b4b---------------|
D:---------------------------------------------|
A:---------------------------------------------|
E:---------------------------------------------|

e:---------------------------------------------|
B:-2-4-5-4-2-4-754---9-7-6---------------------|
G:----------------6b-------9-7-6b--------------|
D:---------------------------------------------|
A:---------------------------------------------|
E:---------------------------------------------|

Intro/Rhythm Guitar (Justin)
                 (x2)
e:----------|----------------------------------|
B:----------|----------------------------------|
G:----------|-6-6666--------4-4444-------------|
D:----------|-6-6666-7-7777-4-4444-4-4444------|
A:----------|-4-4444-7-7777-2-2222-4-4444------|
E:----------|--------5-5555--------2-2222------|

Verse
Prechorus 
Chorus

Pre-Solo/Lead & Rhythm Guitars (Chris&Justin) "Take a break..."
e:---------------------------------------------|
B:---------------------------------------------|
G:-99------66----------------------------------|
D:-99--99--66-77-------------------------------|
A:-77--99--44-77-------------------------------|
E:-----77-----55-------------------------------|

e:---------------------------------------------|
B:---------------------------------------------|
G:-9999-9----------6666-6----------------------|
D:-9999-9--9999-9--6666-6--7777-7--------------|
A:-7777-7--9999-9--4444-4--7777-7--------------|
E:---------7777-7----------5555-5--------------|
   ****    ****    ****    ****

e:---------------------------------------------|
B:---------------------------------------------|
G:-99-9-99-9-------------66-6-66-6-------------|
D:-99-9-99-9--99-9-99-9--66-6-66-6--77-7-77-7--|
A:-77-7-77-7--99-9-99-9--44-4-44-4--77-7-77-7--|
E:------------77-7-77-7-------------55-5-55-5--|
   **   **    **   **    **   **    **   **

Solo/Lead Guitar (Chris) 
e:---------------------------------------------|
B:-999----999----9-----------------------------|
G:-----11-----11--11-9-11-9b9b9b9b-------------|
D:---------------------------------------------|
A:---------------------------------------------|
E:---------------------------------------------|

e:-9-------------------------------------------|
B:---9-----------------------------------------|
G:-----11-9----9-11b11b11b11b------------------|
D:----------11---------------------------------|
A:---------------------------------------------|
E:---------------------------------------------|

e:-12p9-12p9-12p9-12p9-12p9-12p9-14b-14b-14b-14b-14b-14b-|
B:-------------------------------------------------------|
G:-------------------------------------------------------|
D:-------------------------------------------------------|
A:-------------------------------------------------------|
E:-------------------------------------------------------|

e:--------------------------------------------<----------|
B:-12p9-12p9-12p9-12p9-12p9-12p9-14b-14b-14b--<----------|
G:--------------------------------------------<----------|
D:--------------------------------------------<----------|
A:--------------------------------------------<----------|
E:--------------------------------------------<----------|

Solo/Rhythm Guitar (Justin)
    (x4)                         (after 4th time)
e:-------------------------------|-----<--------|
B:-------------------------------|-----<--------|
G:-6-6666--------4-4444----------|-----<--------|
D:-6-6666-7-7777-4-4444-4-4444---|-----<--------|
A:-4-4444-7-7777-2-2222-4-4444---|-----<--------|
E:--------5-5555--------2-2222---|-----<--------|


Prechorus
Chorus (x2)

Order:
Intro 1
Verse
Prechorus
Chorus
Intro 2
Verse
Prechorus
Chorus
Pre-Solo
Solo
Prechorus
Chorus

I'm like 99% sure that tab is correct, but if im wrong tell me.
here are the lyrics....

Verse 1:
 i thought i'd begun to see a change but the more things change,
 the more they stay the same back stabbing and name calling,
 the trade marks of your act you talk and talk of unity,
 but divide with your attacks (you say)

Verse 2: 
 all us kids, we try to make a change some kids start a band,
 others start a zine you, no matter what your path you throw a curve in what
 could be achieved, then give up and move onto some other thing (you say)

Perchorus:
 i'd like to see a change, 
 i'd like to see a change, 
 i'd like to see a change, 
 but i'm too busy... 

Chorus:
 tearing everyone down
Comments