Anti-flag - Tearing Down The Borders Chords & Tabs

 

Tearing Down The Borders Chords & Tabs

Anti-flag Chords & Tabs

Version: 2 Type: Tab 0 ratings
1 star 2 stars 3 stars 4 stars 5 stars
comments

Tearing Down The Borders Tab

   
----------------------------------------------------------------------------
		   Tearing down the boarders - Anti-flag
----------------------------------------------------------------------------
Tabbed by:captain_tom
Email:captain_tom@hotmail.co.uk
Tuning:normal

Intro- guitar 1 (0:03)....x3
e|--------------------------------------------------------------------------|
B|--------------------------------------------------------------------------|
G|-9-9--------------9-9--------------9-9-------------9-9--------------------|
D|----10-10-9-9--------10-10-9-9--------10-10-9-9-------10-10-12-12-9-9-----|
A|-------------10-10------------10-10------------10-0-----------------------|
E|--------------------------------------------------------------------------|

(0:17)...x2
e|--------------------------------------------------------------------------|
B|--------------------------------------------------------------------------|
G|-9------9-9------9-9------9-9---------------------------------------------|
D|--10-9-----10-9-----10-9-----10-12-9--------------------------------------|
A|------10-------10-------10------------------------------------------------|
E|--------------------------------------------------------------------------|

Intro- guitar 2 (0:07)...x2
e|--------------------------------------------------------------------------|
B|--------------------------------------------------------------------------|
G|-0-----5------------------------------------------------------------------|
D|-2--5--5--7--9------------------------------------------------------------|
A|-2--5--3--7--9------------------------------------------------------------|
E|-0--3-----5--7------------------------------------------------------------|

(0:17)....x2
e|--------------------------------------------------------------------------|
B|--------------------------------------------------------------------------|
G|-0-0-0-x-------------5-5-5-5-x--------------------------------------------|
D|-2-2-2-x--5-5-5-5-x--5-5-5-5-x--7-7-7--9-9--------------------------------|
A|-2-2-2-x--5-5-5-5-x--3-3-3-3-x--7-7-7--9-9--------------------------------|
E|-0-0-0-x--3-3-3-3-x-------------5-5-5--7-7--------------------------------|

Verse- both guitars (0:26)...x2 - palm muted
e|--------------------------------------------------------------------------|
B|--------------------------------------------------------------------------|
G|-0-0-0-0-0-0-0-0-------------------5-5-5-5-5-5-5-5------------------------|
D|-2-2-2-2-2-2-2-2--5-5-5-5-5-5-5-5--5-5-5-5-5-5-5-5--7-7-7--9-9------------|
A|-2-2-2-2-2-2-2-2--5-5-5-5-5-5-5-5--3-3-3-3-3-3-3-3--7-7-7--9-9------------|
E|-0-0-0-0-0-0-0-0--3-3-3-3-3-3-3-3-------------------5-5-5--7-7------------|

(0:35)....x1
e|--------------------------------------------------------------------------|
B|--------------------------------------------------------------------------|
G|-0-0-0-0-0---------------------5-5-5-5-5----------------------------------|
D|-2-2-2-2-2--5-5-5-5-5-5-5-5-5--5-5-5-5-5--7-7-7--9-9-9--------------------|
A|-2-2-2-2-2--5-5-5-5-5-5-5-5-5--3-3-3-3-3--7-7-7--9-9-9--------------------|
E|-0-0-0-0-0--3-3-3-3-3-3-3-3-3-------------5-5-5--7-7-7--------------------|

Pre chorus- both guitars (0:40)...x1 - palm muted
e|--------------------------------------------------------------------------|
B|--------------------------------------------------------------------------|
G|-0-0-0-0-0-0-0-0-------------------5-5-5-5-5-5-5-5------------------------|
D|-2-2-2-2-2-2-2-2--5-5-5-5-5-5-5-5--5-5-5-5-5-5-5-5--7-7-7--9-9-9----------|
A|-2-2-2-2-2-2-2-2--5-5-5-5-5-5-5-5--3-3-3-3-3-3-3-3--7-7-7--9-9-9----------|
E|-0-0-0-0-0-0-0-0--3-3-3-3-3-3-3-3-------------------5-5-5--7-7-7----------|

Chorus- both guitars (0:45)...x2 - pick slide after 1st
e|--------------------------------------------------------------------------|
B|--------------------------------------------------------------------------|
G|-0-0-0-0-0-0-0-0-0-0-----------------------5-5-5-5-5----------------------|
D|-2-2-2-2-2-2-2-2-2-2--5-5-5-5-5-5-5-5-5-5--5-5-5-5-5--7-7-7--9-9-9--------|
A|-2-2-2-2-2-2-2-2-2-2--5-5-5-5-5-5-5-5-5-5--3-3-3-3-3--7-7-7--9-9-9--------|
E|-0-0-0-0-0-0-0-0-0-0--3-3-3-3-3-3-3-3-3-3-------------5-5-5--7-7-7--------|

e|--------------------------------------------------------------------------|
B|--------------------------------------------------------------------------|
G|-0-0-0-0-0----------------------------------------------------------------|
D|-2-2-2-2-2----------------------------------------------------------------|
A|-2-2-2-2-2----------------------------------------------------------------|
E|-0-0-0-0-0----------------------------------------------------------------|

Intro- guitar 1 (1:04)...x2
e|--------------------------------------------------------------------------|
B|--------------------------------------------------------------------------|
G|-9-9--------------9-9--------------9-9---------------9-9------------------|
D|----10-10-9-9--------10-10-9-9--------10-10-9-9---------10-10-12-12-9-9---|
A|-------------10-10------------10-10------------10-10----------------------|
E|--------------------------------------------------------------------------|

(1:13)-(1:20).....x loads
e|--------------------------------------------------------------------------|
B|--------------------------------------------------------------------------|
G|--------------------------------------------------------------------------|
D|-h14-12-h14-12-h14-12-h14-12----------------------------------------------|
A|--------------------------------------------------------------------------|
E|--------------------------------------------------------------------------|

Intro - guitar 2 (1:04)...x2
e|--------------------------------------------------------------------------|
B|--------------------------------------------------------------------------|
G|-0-0-0-x-------------5-5-5-5-x--------------------------------------------|
D|-2-2-2-x--5-5-5-5-x--5-5-5-5-x--7-7-7--9-9--------------------------------|
A|-2-2-2-x--5-5-5-5-x--3-3-3-3-x--7-7-7--9-9--------------------------------|
E|-0-0-0-x--3-3-3-3-x-------------5-5-5--7-7--------------------------------|
[ Tab from: http://www.guitartabs.cc/tabs/a/anti_flag/tearing_down_the_borders_tab_ver_2.html ]
both guitars (1:20)...x1
e|--------------------------------------------------------------------------|
B|--------------------------------------------------------------------------|
G|-0-0-0-x-------------5-5-5-5-x--------------------------------------------|
D|-2-2-2-x--5-5-5-5-x--5-5-5-5-x--7-7-7--9-9--------------------------------|
A|-2-2-2-x--5-5-5-5-x--3-3-3-3-x--7-7-7--9-9--------------------------------|
E|-0-0-0-x--3-3-3-3-x-------------5-5-5--7-7--------------------------------|

Pre chorus- both guitars (1:27)...x1 - palm muted
e|--------------------------------------------------------------------------|
B|--------------------------------------------------------------------------|
G|-0-0-0-0-0-0-0-0-------------------5-5-5-5-5-5-5-5------------------------|
D|-2-2-2-2-2-2-2-2--5-5-5-5-5-5-5-5--5-5-5-5-5-5-5-5--7-7-7--9-9-9----------|
A|-2-2-2-2-2-2-2-2--5-5-5-5-5-5-5-5--3-3-3-3-3-3-3-3--7-7-7--9-9-9----------|
E|-0-0-0-0-0-0-0-0--3-3-3-3-3-3-3-3-------------------5-5-5--7-7-7----------|

Chorus- both guitars (1:32)...x1
e|--------------------------------------------------------------------------|
B|--------------------------------------------------------------------------|
G|-0-0-0-0-0-0-0-0-0-0-----------------------5-5-5-5-5----------------------|
D|-2-2-2-2-2-2-2-2-2-2--5-5-5-5-5-5-5-5-5-5--5-5-5-5-5--7-7-7--9-9-9--------|
A|-2-2-2-2-2-2-2-2-2-2--5-5-5-5-5-5-5-5-5-5--3-3-3-3-3--7-7-7--9-9-9--------|
E|-0-0-0-0-0-0-0-0-0-0--3-3-3-3-3-3-3-3-3-3-------------5-5-5--7-7-7--------|

e|--------------------------------------------------------------------------|
B|--------------------------------------------------------------------------|
G|-0-0-0-0-0----------------------------------------------------------------|
D|-2-2-2-2-2----------------------------------------------------------------|
A|-2-2-2-2-2----------------------------------------------------------------|
E|-0-0-0-0-0----------------------------------------------------------------|

Both guitars (1:42)
e|--------------------------------------------------------------------------|
B|--------------------------------------------------------------------------|
G|-0-0-0-0-0-0-0-0-0-0-----------------------5-5-5-5-5----------------------|
D|-2-2-2-2-2-2-2-2-2-2--5-5-5-5-5-5-5-5-5-5--5-5-5-5-5--7-7-7--9-9-9--------|
A|-2-2-2-2-2-2-2-2-2-2--5-5-5-5-5-5-5-5-5-5--3-3-3-3-3--7-7-7--9-9-9--------|
E|-0-0-0-0-0-0-0-0-0-0--3-3-3-3-3-3-3-3-3-3-------------5-5-5--7-7-7--------|

(1:48)....x2
e|--------------------------------------------------------------------------|
B|--------------------------------------------------------------------------|
G|-5-x-x-x-x-------------0-x-x-x-x-x-x-x-x----------------------------------|
D|-5-x-x-x-x--7-x-x-x-x--2-x-x-x-x-x-x-x-x----------------------------------|
A|-3-x-x-x-x--7-x-x-x-x--2-x-x-x-x-x-x-x-x----------------------------------|
E|------------5-x-x-x-x--0-x-x-x-x-x-x-x-x----------------------------------|

(1:58)....x2 - let ring
e|--------------------------------------------------------------------------|
B|--------------------------------------------------------------------------|
G|-5-x-x-x-x--7-x-x---------0-x-x-x-x-x-x-x-x-------------------------------|
D|-5-x-x-x-x--7-x-x--7-x-x--2-x-x-x-x-x-x-x-x-------------------------------|
A|-3-x-x-x-x--5-x-x--7-x-x--2-x-x-x-x-x-x-x-x-------------------------------|
E|-------------------5-x-x--0-x-x-x-x-x-x-x-x-------------------------------|

Interlude guitar 2(2:14)...x1  (let ring)
e|--------------------------------------------------------------------------|
B|--------------------------------------------------------------------------|
G|-9------------------------------------------------------------------------|
D|-9------------------------------------------------------------------------|
A|-7------------------------------------------------------------------------|
E|--------------------------------------------------------------------------|

guitar 1 (2:19)...x1
e|--------------------------------------------------------------------------|
B|--------------------------------------------------------------------------|
G|-9------------------------------------------------------------------------|
D|--9---6-------------------------------------------------------------------|
A|-------7------------------------------------------------------------------|
E|--------------------------------------------------------------------------|

Both guitars (2:23)...x2 - palm muted
e|--------------------------------------------------------------------------|
B|--------------------------------------------------------------------------|
G|-0-0-0-0-0-0-0-0-0-0-----------------------5-5-5-5-5----------------------|
D|-2-2-2-2-2-2-2-2-2-2--5-5-5-5-5-5-5-5-5-5--5-5-5-5-5--7-7-7--9-9-9--------|
A|-2-2-2-2-2-2-2-2-2-2--5-5-5-5-5-5-5-5-5-5--3-3-3-3-3--7-7-7--9-9-9--------|
E|-0-0-0-0-0-0-0-0-0-0--3-3-3-3-3-3-3-3-3-3-------------5-5-5--7-7-7--------|

e|--------------------------------------------------------------------------|
B|--------------------------------------------------------------------------|
G|-0-0-0-0-0----------------------------------------------------------------|
D|-2-2-2-2-2----------------------------------------------------------------|
A|-2-2-2-2-2----------------------------------------------------------------|
E|-0-0-0-0-0----------------------------------------------------------------|

Outro both guitars (2:42)...x1
e|--------------------------------------------------------------------------|
B|--------------------------------------------------------------------------|
G|-9-9-9-9-9-9-9-9--7-7-7-7-7-7-7-7--5-5-5-5------------0-0-0-0-0-----------|
D|-9-9-9-9-9-9-9-9--7-7-7-7-7-7-7-7--5-5-5-5--7-7--9-9--2-2-2-2-2-----------|
A|-7-7-7-7-7-7-7-7--5-5-5-5-5-5-5-5--3-3-3-3--7-7--9-9--2-2-2-2-2-----------|
E|--------------------------------------------5-5--7-7--0-0-0-0-0-----------|

...........x1 variation to end
e|--------------------------------------------------------------------------|
B|--------------------------------------------------------------------------|
G|-9-9-9-9-9-9-9-9--7-7-7-7-7-7-7-7--5-5-5-5------------5-5-5-5-------------|
D|-9-9-9-9-9-9-9-9--7-7-7-7-7-7-7-7--5-5-5-5--7-7--9-9--5-5-5-5--7-7--9-9---|
A|-7-7-7-7-7-7-7-7--5-5-5-5-5-5-5-5--3-3-3-3--7-7--9-9--3-3-3-3--7-7--9-9---|
E|--------------------------------------------5-5--7-7-----------5-5--7-7---|

e|--------------------------------------------------------------------------|
B|--------------------------------------------------------------------------|
G|-5-5-5-5--7-7-------0-0-0-0-0---------------------------------------------|
D|-5-5-5-5--7-7--7-7--2-2-2-2-2---------------------------------------------|
A|-3-3-3-3--5-5--7-7--2-2-2-2-2---------------------------------------------|
E|---------------5-5--0-0-0-0-0---------------------------------------------|

| /  slide up
| \  slide down
| h  hammer-on
| p  pull-off
| ~  vibrato
| +  harmonic
| x  Mute note
============================================================================
Comments