Anti-flag - State Funeral Chords & Tabs

 

State Funeral Chords & Tabs

Anti-flag Chords & Tabs

Version: 1 Type: Bass Tab

State Funeral Bass Tab

State Funeral - Anti-Flag

one of the faster songs on For Blood And Empire.

Intro:

G|---------------------------------6-6-6-6-11-11-11-11-17-17-17-17-|
D|-------------------------4-4-4-4---------------------------------|
A|-----------------4-4-4-4-----------------------------------------|
E|-2-2-2-2-2-2-2-2-------------------------------------------------|

G|-------------------------------------|
D|-------------------------------------|
A|-------------------------------------|
E|-1-1-1-1-1-1-1-1-.....very many times|

Verse:

G|---------------------------------------------------------|
D|-----------------------------------------------6-------6-|
A|-------6-6-4-6-------6-6-4-6-------6-6-4-6---6---6---6---|x2
E|-1-1-1---------1-1-1---------1-1-1---------6-------4-----|

Chorus:

G|-------------------------------------------------------------------|
D|-------6-----------------------------------6-----------------------|
A|-4-4-4---4-------6-------------------4-4-4---4-------6---8-8-8-6-4-|
E|-----------4-4-4---4-1-1-1-1-1-1-1-1-----------4-4-4---4-----------|
[ Tab from: http://www.guitartabs.cc/tabs/a/anti_flag/state_funeral_btab.html ]
G|------------------------------------------------|
D|-------6----------------------------------------|
A|-4-4-4---4-------6-------------------4-4--------|
E|-----------4-4-4---4-1-1-1-1-1-1-1-1------4-4--1|

Pre-Verse:

G|------------------------------------|
D|-----------------3-3-3-3------------|
A|-------------------------1-1-1-1----|
E|-1-1-1-1-1-1-1-1-----------------4--|

Verse:

G|---------------------------------------------------------|
D|-----------------------------------------------6-------6-|
A|-------6-6-4-6-------6-6-4-6-------6-6-4-6---6---6---6---|
E|-1-1-1---------1-1-1---------1-1-1---------6-------4-----|

Chorus:

G|-------------------------------------------------------------------|
D|-------6-----------------------------------6-----------------------|
A|-4-4-4---4-------6-------------------4-4-4---4-------6---8-8-8-6-4-|
E|-----------4-4-4---4-1-1-1-1-1-1-1-1-----------4-4-4---4-----------|

G|------------------------------------------------|
D|-------6----------------------------------------|
A|-4-4-4---4-------6-------------------4-4--------|
E|-----------4-4-4---4-1-1-1-1-1-1-1-1------4-4--1|

Outro:

G|-----------------------------|
D|-----------------------------|
A|-------------------------6-6-|x5
E|-1-1-1-3-3-3-4-4-4-6-6-6-----|