Anti-flag - Stars And Stripes Chords & Tabs

 

Stars And Stripes Chords & Tabs

Anti-flag Chords & Tabs

Version: 1 Type: Tab 0 ratings
1 star 2 stars 3 stars 4 stars 5 stars
comments

Stars And Stripes Tab

   
Anti-flag
Stars and stripes
Tabbed by gary T (garyt_44@yahoo.com)

Intro:
e|------------------------------------|
B|------------------------------------|
G|-6-6-6-6--2-2-2-2-------------------|
D|-6-6-6-6--2-2-2-2--2-2-2-2--4-4-4-4-|
A|-4-4-4-4--0-0-0-0--2-2-2-2--4-4-4-4-|
E|-------------------0-0-0-0--2-2-2-2-|

Verse:
e|-----|
B|-----|
G|-6-2-|
D|-6-2-|
A|-4-0-|
E|-----|

Pre-chorus:
e|-------------------------|
B|-------------------------|
G|-------------------------|
D|-6-6-6-6-6-6-6-6-6-6-6-6-|
A|-6-6-6-6-6-6-6-6-6-6-6-6-|
E|-4-4-4-4-4-4-4-4-4-4-4-4-|
PM . . . . . . . . . . . .
[ Tab from: http://www.guitartabs.cc/tabs/a/anti_flag/stars_and_stripes_tab.html ]
Chorus:
e|------------------------------------|
B|------------------------------------|
G|-6-6-6-6--2-2-2-2-------------------|
D|-6-6-6-6--2-2-2-2--2-2-2-2--4-4-4-4-|
A|-4-4-4-4--0-0-0-0--2-2-2-2--4-4-4-4-|
E|-------------------0-0-0-0--2-2-2-2-|

Bridge:
e|---------------------------------|
B|---------------------------------|
G|-4-4-4-4-6-6-6-6-2-2-2-2---------|
D|-4-4-4-4-6-6-6-6-2-2-2-2-2-2-2-2-|
A|-2-2-2-2-4-4-4-4-0-0-0-0-2-2-2-2-|
E|-------------------------0-0-0-0-|
play a few times and then play this:

e|-------------------|
B|-------------------|
G|-2-2-2-2-2-2-2-2-4-|
D|-2-2-2-2-2-2-2-2-4-|
A|-0-0-0-0-0-0-0-0-2-|
E|-------------------|
Comments