Anti-flag - Spazs House Destruction Party Chords & Tabs

 

Spazs House Destruction Party Chords & Tabs

Anti-flag Chords & Tabs

Version: 2 Type: Tab 0 ratings
1 star 2 stars 3 stars 4 stars 5 stars
comments

Spazs House Destruction Party Tab

ANTI-FLAG-SPAZ'S HOUSE DESTRUCTION PARTY
Tabbed By Ben H (PunkAsPhuck)

Tuned 1/2 step down


intro
e|---------------------------| 
B|---------------------------| 
G|--12--7--------------------| 
D|--12--7--7--(9-)-----------| 
A|--10~-5~-7--(9-)-----------| 
E|---------5~-(7-)-----------| x2

chorus: 
e|----------------------------------------------------| 
B|----------------------------------------------------| 
G|--12--7------------------12--7--14--16---12--7------| 
D|--12--7--7--(9)---(2x)---12--7--14--16---12--7--7---| 
A|--10--5--7--(9)----------10--5--12--14---10--5--7---| 
E|---------5--(7)---------------------------------5---| 

verse 
e|----------------------------------| 
B|----------------------------------| 
G|-----7-----7------7---------------| 
D|--5--7--5--7---5--7--7-7----------| 
A|--5--5--5--5---5--5--7-7----------| 
E|--3-----3------3-----5-5----------| x2

e|----------------------| 
B|----------------------| 
G|----------------------| 
D|--9--7--5--7----------| 
A|--9--7--5--7----------| 
E|--7--5--3--5----------| x2

chorus
e|-----------------------------------------------------------| 
B|-----------------------------------------------------------| 
G|--12--7--------12--7------------12--7--14--16---12--7------| 
D|--12--7--7--9--12--7--7-5-4-2---12--7--14--16---12--7--7---| 
A|--10--5--7--9--10--5--7-5-4-2---10--5--12--14---10--5--7---| 
E|---------5--7---------5-3-2-0--------------------------5---| 
[ Tab from: http://www.guitartabs.cc/tabs/a/anti_flag/spazs_house_destruction_party_tab_ver_2.html ]
e|----------------------------------------------------| 
B|----------------------------------------------------| 
G|--12--7------------------12--7--14--16---12--7------| 
D|--12--7--7--(9)---(2x)---12--7--14--16---12--7--7---| 
A|--10--5--7--(9)----------10--5--12--14---10--5--7---| 
E|---------5--(7)---------------------------------5---| 

verse
e|----------------------------------| 
B|----------------------------------| 
G|-----7-----7------7---------------| 
D|--5--7--5--7---5--7--7-7----------| 
A|--5--5--5--5---5--5--7-7----------| 
E|--3-----3------3-----5-5----------| x2


e|----------------------| 
B|----------------------| 
G|----------------------| 
D|--9--7--5--7----------| 
A|--9--7--5--7----------| 
E|--7--5--3--5----------| x2

chorus:
e|-----------------------------------------------------------| 
B|-----------------------------------------------------------| 
G|--12--7--------12--7------------12--7--14--16---12--7------| 
D|--12--7--7--9--12--7--7-5-4-2---12--7--14--16---12--7--7---| 
A|--10--5--7--9--10--5--7-5-4-2---10--5--12--14---10--5--7---| 
E|---------5--7---------5-3-2-0--------------------------5---| 

e|---------------------| 
B|---------------------| 
G|--7------------------| 
D|--7--9--5-5----------| 
A|--5--9--5-5----------| 
E|-----7--3-3----------| x4

chorus 
e|-----------------------------------------------------------| 
B|-----------------------------------------------------------| 
G|--12--7--------12--7------------12--7--14--16---12--7------| 
D|--12--7--7--9--12--7--7-5-4-2---12--7--14--16---12--7--7---| 
A|--10--5--7--9--10--5--7-5-4-2---10--5--12--14---10--5--7---| 
E|---------5--7---------5-3-2-0--------------------------5---| 

e|----------------------------------| 
B|----------------------------------| 
G|--12--7----------------12--7------| 
D|--12--7--7--9---(2x)---12--7--7---| 
A|--10--5--7--9----------10--5--7---| 
E|---------5--7-----------------5---|
Comments