Anti-flag - Sold As Freedom Chords & Tabs

 

Sold As Freedom Chords & Tabs

Anti-flag Chords & Tabs

Version: 3 Type: Tab 0 ratings
1 star 2 stars 3 stars 4 stars 5 stars
comments

Sold As Freedom Tab

Anti-flag
Sold as Freedom

standard tuning

intro
e-----------------------------------------------------|
B-97-97-9797-97-9797-97-9797-97-97--------------------|
G---8--8----8--8----8--8----8--8----------------------|play very fast
D-----------------------------------------------------|
A-----------------------------------------------------|
E-----------------------------------------------------|


e-----------------------------------------------------|
B-----------------------------------------------------|
G-9xx-8xx-4xx-----------------------------------------|
D-9xx-8xx-4xx-4xx-6666666666666-----------------------| x 4
A-7xx-6xx-2xx-4xx-6666666666666-----------------------|
E-------------2xx-4444444444444-----------------------|

verse
guitar 1 (muted)
e-----------------------------------------------------|
B-----------------------------------------------------|
G-999-888-444-----------------------------------------|
D-999-888-444-444-6666666666666-----------------------| x 4
A-777-666-222-444-6666666666666-----------------------|
E-------------222-4444444444444-----------------------|

verse
guitar 2
e-----------------------------------------------------|
B-----------------------------------------------------|
G-13------/10/13-------13------/10/13-----------------|
D----x 13--------x 13-----x 13--------x 13------------|
A-11------/11/13-------11------/11/13-----------------|
E-----------------------------------------------------|

[ Tab from: http://www.guitartabs.cc/tabs/a/anti_flag/sold_as_freedom_tab_ver_3.html ]
e---------------------------------------------------------------------|
B---------------------------------------------------------------------|
G-13131313/11111111/9999/8888------9999/8888/6666/11111111/13131313---|
D-----------------------------x 13------------------------------------|
A-11111111/9 9 9 9 /7777/6666------7777/4444/4444/9 9 9 9 /11111111---|
E---------------------------------------------------------------------|

chorus
e---------------------------------------------|
B---------------------------------------------|
G-9-98--6-98-11-------------------------------| x 3
D-9---9-6-------6-----------------------------|
A-7-----4-------6-x 16------------------------|
E---------------4-----------------------------|


e----------------------------------------------|
B----------------------------------------------|
G-4-------8------------------------------------|
D-4-x 16--8-x 16-------------------------------|
A-2-------6------------------------------------|
E----------------------------------------------|

bridge
e----------------------------------------------|
B----------------------------------------------|
G-9-98--8-98----98----98-11--------------------|
D-9---7-8---7-6---7-9--------------------------| x 2
A-7-----6-----6-----9--------------------------|
E-------------3-----7--------------------------|


e----------------------------------------------|
B----------------------------------------------|
G-99xx-88xx------------------------------------|
D-99xx-88xx-66xx-99xx--------------------------| x 2
A-77xx-66xx-66xx-99xx--------------------------|
E-----------44xx-77xx--------------------------|

(muted)
e----------------------------------------------|
B----------------------------------------------|
G-99999999-88888888----------------------------|
D-99999999-88888888-66666666-99999999----------| x 2
A-77777777-66666666-66666666-99999999----------|
E-------------------44444444-77777777----------|

chorus
e----------------------------------------------|
B----------------------------------------------|
G-9xx-8xx-4xx----------------------------------|
D-9xx-8xx-4xx-4xx-6666666666666-------------6--|
A-7xx-6xx-2xx-4xx-6666666666666-x 4-ends on-6--|
E-------------2xx-4444444444444-------------4--|
Comments