Anti Flag - Safe Tonight Chords & Tabs

 

Safe Tonight Chords & Tabs

Anti Flag Chords & Tabs

Version: 2 Type: Tab 0 ratings
1 star 2 stars 3 stars 4 stars 5 stars
comments

Safe Tonight Tab

intro: X4
e|-------------------------------------------------------------------------|
B|-------------------------------------------------------------------------|
G|-8-8-8-8-8-8---------------6-6-6-6-6-------------------------------------|
D|-8-8-8-8-8-8--9-9-9-9-9-9--6-6-6-6-6--6-6-6-6-6-6------------------------|
A|-6-6-6-6-6-6--9-9-9-9-9-9--4-4-4-4-4--6-6-6-6-6-6------------------------|
E|--------------7-7-7-7-7-7-------------4-4-4-4-4-4------------------------|

Verse: X3
e|-------------------------------------------------------------------------|
B|-------------------------------------------------------------------------|
G|-8-888888------------6-666666--------------------------------------------|
D|-8-888888--9-999999--6-666666--6-666666----------------------------------|
A|-6-666666--9-999999--4-444444--6-666666----------------------------------|
E|-----------7-777777------------4-444444----------------------------------|
     ......    ......    ......    ......
Then:
e|-------------------------------------------------------------------------|
B|-------------------------------------------------------------------------|
G|-8-8-8-8-8-8-8-8-8-------------------6-6-6-6-6-6-6-6---------------------|
D|-8-8-8-8-8-8-8-8-8--9-9-9-9-9-9-9-9--6-6-6-6-6-6-6-6--6-6-6-6-6-6-6-6----|
A|-6-6-6-6-6-6-6-6-6--9-9-9-9-9-9-9-9--4-4-4-4-4-4-4-4--6-6-6-6-6-6-6-6----|
E|--------------------7-7-7-7-7-7-7-7-------------------4-4-4-4-4-4-4-4----|
   ....................................................................
Chorus
e|-------------------------------------------------------------------------|
B|--------------------------11-11-11-9-11-11-11-9-11-11-11-9-11-11-11-9----|
G|-666-4-666-4-666-4-666-4-------------------------------------------------|
D|-------------------------------------------------------------------------|
A|-------------------------------------------------------------------------|
E|-------------------------------------------------------------------------|

Play Intro

Verse

Chorus
[ Tab from: http://www.guitartabs.cc/tabs/a/anti_flag/safe_tonight_tab_ver_2.html ]
Bridge:
e|-------------X2-------------------|--------------------------------------|
B|----------------------------------|--------------------------------------|
G|------------------8-8-8-8-8-8-8-8-|-6-6-6-6--4-4-4-4---------------------|
D|-9-9-9-9-9-9-9-9--8-8-8-8-8-8-8-8-|-6-6-6-6--4-4-4-4--8-8-8-8-8-8-8-8----|
A|-9-9-9-9-9-9-9-9--6-6-6-6-6-6-6-6-|-4-4-4-4--2-2-2-2--8-8-8-8-8-8-8-8----|
E|-7-7-7-7-7-7-7-7------------------|-------------------6-6-6-6-6-6-6-6----|

e|-------------------------------------------------------------------------|
B|-------------------------------------------------------------------------|
G|--6-6-6-6--4-4-4-4--------------------8----------------------------------|
D|--6-6-6-6--4-4-4-4--8--8--8--8--8--8--8-Ring-----------------------------|
A|--4-4-4-4--2-2-2-2--8--8--8--8--8--8--6----------------------------------|
E|--------------------6--6--6--6--6--6-------------------------------------|

Solo
e|-------------------------------------------------------------------------|
B|-10b11-10b11-10b11-10b11-10b11-11p9--7----7b-7b----7b-7b-----------------|
G|---------------------------------------8-------8b-------8b---------------|
D|-------------------------------------------------------------------------|
A|-------------------------------------------------------------------------|
E|-------------------------------------------------------------------------|

e|-----------------------------------------------------11h14p11------------|
B|-11-11-11-11-11-11-11p9-----------------------------/---X7---\-----------|
G|-----------------------11---8h11-8h11-8h11-8h11-8h11---------------------|
D|-------------------------------------------------------------------------|
A|-------------------------------------------------------------------------|
E|-------------------------------------------------------------------------|

e|-14-14-14-14-14-16b-16b-16b-16b------------------------------------------|
B|---------------------------------11b-------------------------------------|
G|------------------------------------11b----------------------------------|
D|-------------------------------/---X8---\--------------------------------|
A|-------------------------------------------------------------------------|
E|-------------------------------------------------------------------------|

Intro: X2

Chorus2
e|-------------------------------------------------------------------------|
B|-------------------------------------------------------------------------|
G|-666-4-666-4-666-4-666-4-666-4-666-4-666-4-666--4------------------------|
D|-------------------------------------------------------------------------|
A|-------------------------------------------------------------------------|
E|-------------------------------------------------------------------------|

IntroX 2


tabbed by: aaron marquet  email: azzman_123@hotmail.com
i have msn so add me

                          peace
Comments