Anti-flag - Right To Choose Chords & Tabs

 

Right To Choose Chords & Tabs

Anti-flag Chords & Tabs

Version: 1 Type: Bass Tab 0 ratings
1 star 2 stars 3 stars 4 stars 5 stars
comments

Right To Choose Bass Tab

   
Song: Right To Choose
Artist: Anti-Flag
Album: Mobilize 
Tuning; EADG 
Tabbed by: Dan Fling 

/=slide

Intro: x2
G-----64----------64------------64---------------
D---------67----------67/9----------67-----------
A-44----------44------------44-------------------
E---------------------------------------7--5--4--
[ Tab from: http://www.guitartabs.cc/tabs/a/anti_flag/right_to_choose_btab.html ]
Verse: x2
                                            play this on the second time
G-----------------------------------------------|------------
D-----------------------------------------------|------------
A-44----4-4---77----7-7-------------------------|------------
E-------------------------77----7-7---55----5-5-|--55555555--

Chorus: x1 
G----------------------------------------
D----------------------------------------
A-44444444--77777777--------------------- 
E---------------------77777777--5555555-- 

Intro: x2
Verse1: x2
Chorus: x1
Intro: x2

Bridge: x1 listen for bass
                                     play this on the second time
G----------------------------------------|-------------------
D----------------------------------------|-------------------
A-44444444--77777777---------------------|-------------------
E---------------------77777777-55555555--|---55--55--55--55-- 

Chorus: x2
Intro: x2 

End 
G---
D---
A-4- 
E---
Comments