Anti Flag - Right On Chords & Tabs

 

Right On Chords & Tabs

Anti Flag Chords & Tabs

Version: 1 Type: Bass Tab 0 ratings
1 star 2 stars 3 stars 4 stars 5 stars
comments

Right On Bass Tab

Anti-Flag:
Right On
tabbed by: intense@westol.com

this is tabbed in normal antiflag tuning (half step down). if you're
regular tuning, just play everything one fret lower than what it says
on this tab
Intro:

Gb-9-9--9-9--9-9-9-9-9-9-9-9-
Db---------------------------
Ab---------------------------
Eb---------------------------

then

Gb---------
Db---------
Ab-7-5----- (4x)
Eb-----7-5-

Verse:
Gb---------------7-9-7---9-7---9-7---------------------
Db--------7-9-10-------9-----9-----10-9-7--------------
Ab-7-9-10---------------------------------10-9-7-5-----
Eb-------------------------------------------------7-5-
[ Tab from: http://www.guitartabs.cc/tabs/a/anti_flag/right_on_btab.html ]
Pre-Chorus:
Gb---------------------------------
Db---------5-3-------------7-5-----
Ab-----3-5-----5-3-----5-7-----7-5-
Eb-3-6-------------5-8-------------

1st and 3rd Chorus:
Gb---------
Db---------
Ab-7-5----- (2x)
Eb-----7-5-

then

Gb-------------------9-9-7-7---------
Db---------------7-7---------9-9-7-7-
Ab-7-7-9-9-10-10---------------------
Eb-----------------------------------

2nd Chorus:
Gb---------
Db---------
Ab-7-5----- (3x)
Eb-----7-5-

then

Gb-------------------9-
Db---------------7-7---
Ab-7-7-9-9-10-10-------
Eb---------------------

Bridge:
during the "antiflag... that doesnt mean anti
the american flag does it?" play
Gb-9-9-
Db-----
Ab-----
Eb-----

Solo:
during solo play
Gb---------
Db---------
Ab-7-5----- (4x)
Eb-----7-5- 

Order Of Song:
Intro
Verse (2x)
Pre-Chorus
1st Chorus
Verse (2x)
Pre-Chorus
2nd Chorus
Bridge
Solo
Pre-Chorus
3rd Chorus
Comments