Anti-flag - Rank-n-file Chords & Tabs

 

Rank-n-file Chords & Tabs

Anti-flag Chords & Tabs

Version: 1 Type: Tab 0 ratings
1 star 2 stars 3 stars 4 stars 5 stars
comments

Rank-n-file Tab

INTRO
e|--------------------------------------------------------------------------
B|--------------------------------------------------------------------------
G|--8888--5555--3-----------------------------------------------------------
D|--8888--5555--3-----------------------------------------------------------
A|--6666--3333--1-----------------------------------------------------------
E|--------------------------------------------------------------------------

e|--------------------------------------------------------------------------
B|-8--11--8--11-11-11/13\11--8--11--11-11-11/13\11--8--11--11-11-11/13\11---
G|--88--88-88--------------88-88--88--------------88-88--88--------------89-
D|--------------------------------------------------------------------------
A|--------------------------------------------------------------------------
E|--------------------------------------------------------------------------
[ Tab from: http://www.guitartabs.cc/tabs/a/anti_flag/rank_n_file_tab.html ]
VERSE
e|-------------------------------------------------------------------
B|-------------------------------------------------------------------
G|-8888--5--3--------------------------------------------------------
D|-8888--5--3--6-----------------------------------------------------
A|-6666--3--1--6-----------------------------------------------------
E|-------------4-----------------------------------------------------

BRIDGE
e|-------------------------------------------------------------------
B|-------------------------------------------------------------------
G|--5555--3333--88888887---------------------------------------------
D|--5555--3333--88888887---------------------------------------------
A|--3333--1111--66666665---------------------------------------------
E|-------------------------------------------------------------------

CHORUS
e|-------------------------------------------------------------------
B|-------------------------------------------------------------------
G|--8888--5555--3333-------------------------------------------------
D|--8888--5555--3333--6666-------------------------------------------
A|--6666--3333--1111--6666-------------------------------------------
E|--------------------4444-------------------------------------------

INTRO [2x]
VERSE [2x]
BRIDGE[2x]
CHORUS[2x]

e|------------------------------------------------------------------
B|------------------------------------------------------------------
G|--8--3--5---------------------------------------------------------
D|--8--3--5--6------------------------------------------------------
A|--6--1--3--6------------------------------------------------------
E|-----------4------------------------------------------------------

CHORUS [4x]
Comments