Anti-flag - Protest Song Chords & Tabs

 

Protest Song Chords & Tabs

Anti-flag Chords & Tabs

Version: 1 Type: Chords 0 ratings
1 star 2 stars 3 stars 4 stars 5 stars
comments

Protest Song Chords

   
-------------------------------------------------------------------------------
			     Protest Song - Anti-Flag
-------------------------------------------------------------------------------
Tabbed by: Punk Guitar
Email: Sebenz2000@hotmail.com

Tuning: Standar

Ive gone arownd looking for a good Tab of this song and have found none too good.
So, i decided to put one together for myself. I dont think its 100% correct, but
it sounds preety good to me. Since i dont know if these are real chords, i have 
laveled them with a letter, again that is not the name of the chord. 
Any questions, coments, or whatever, fell free to email me.

Index:      
      A    B    C    D    E    F

e|----3------------------------0---------------------------------------------|
B|----3----3----3----3----3----0---------------------------------------------|
G|----0----0----0----0----2----0---------------------------------------------|
D|---------2--------------0----2---------------------------------------------|
A|---------0----3----2---------2---------------------------------------------|
E|----3------------------------0---------------------------------------------|


                                A  
And so the time has finally come
    A              B                C            E         
The bourgeosie has signed the war decree with proletariat blood
A                                    
And that blood which flows from their pen
A                           B                     C D   
Is the closest that they've ever been to the people
B                                    
You've been to our shows
C                                    
(You've sung our songs!)
B                              C                  E         
Now we're asking you to add to each chorus you've sung and

[ Tab from: http://www.guitartabs.cc/tabs/a/anti_flag/protest_song_crd.html ]
{CHORUS}
A        B        C          F     E
Protest, against, injustice, state terror
A                     B
On the streets of the world
        C    F  E        
For the disempowered
A
You've sung at our shows
B
Cheered right over wrong
C
Now it's time to hit the streets
     F	                      E
Back up those words you've sung
{CHORUS ENDS}


           A            B                  C          
Because our voices alone this time will not get it done


A                                   
Looking to stop a rogue regime?
A                           B                C            E
Well the first ones that we must confront is WASHINGTON, DC!
A                                    
The bush "terror war", UNCONSTITUTIONAL, UNCONSCIENABLE
A                               B           C   D     
We refuse to let him kill, with our name for oil
B                                    
We know their game
C                                  
Know they're corrupt
B                                 C                       E     
It's up to us to hit the streets, time to take our rights back!(YEAH!)


{CHORUS}


           A            B                  C
Because our voices alone this time will not get it done
            A         B                C
Because the people, united will get it done

A        B        C          F     E
Protest, against, injustice, state terror
A                    (B             C    F  E) <-----(first time, chords not played)
On the streets of the world for the disempowered [x4]


Index:
      A    B    C    D    E    F

e|----3------------------------0---------------------------------------------|
B|----3----3----3----3----3----0---------------------------------------------|
G|----0----0----0----0----2----0---------------------------------------------|
D|---------2--------------0----2---------------------------------------------|
A|---------0----3----2---------2---------------------------------------------|
E|----3------------------------0---------------------------------------------|

===============================================================================
Comments