Anti-flag - Project For A New American Century Chords & Tabs

 

Project For A New American Century Chords & Tabs

Anti-flag Chords & Tabs

Version: 1 Type: Bass Tab

Project For A New American Century Bass Tab

The Project For A New American Century - Anti-Flag
This is Track 4 off their new album... one of my favorites!


Intro:

G|------------------------|
D|---------------------8-8|
A|-----------------8-8----|
E|-6-6-4-6-6-4-6-6--------|

G|------------------------------------------------------------|
D|------------------------------------------------------------|
A|---8-6---9-8-6-----8-6---9-8-6-8---8-6---9-8-6-------8h9-10-|x2
E|-6-----9-------9-6----9----------6-----9-------9-9-9--------|

Verse:

G|------------8-----------------------------11-10-8----8------------------8-|
D|-8-10-11-10---11-10-11-10-8----8-10-11-10---------11---11-10-8-10-11-10---|
A|----------------------------11--------------------------------------------|
E|--------------------------------------------------------------------------|

G|----------------------------|
D|-11-10-11-10-8--------------|
A|---------------11-----8h9-11|x2
E|------------------9-9-------|

Chorus:

G|--------------1-----------3---3-5-6-------------------|
D|----------4-----4-3-1---6---6-------6---------3-------|
A|--------4---4---------4-----------------6-4-3---6-4-3-|
E|-6-6--2-------------------------------4---------------|

G|---------6-5-------------1-----------3---3-5-6------------------|
D|-----8-------8-6-----4-----4-3-1---6---6-------6---------3------|
A|---8---8-----------4---4---------4-----------------6-4-3---6-4-3|
E|-6---------------2-------------------------------4--------------|

G|---------------|
D|-------------6-|
A|-----------6---|
E|-4-4-4-4-4-----|

Intro:

G|------------------------------------------------------------|
D|------------------------------------------------------------|
A|---8-6---9-8-6-----8-6---9-8-6-8---8-6---9-8-6-------8h9-10-|
E|-6-----9-------9-6----9----------6-----9-------9-9-9--------|

Verse:
[ Tab from: http://www.guitartabs.cc/tabs/a/anti_flag/project_for_a_new_american_century_btab.html ]
G|------------8-----------------------------11-10-8----8------------------8-|
D|-8-10-11-10---11-10-11-10-8----8-10-11-10---------11---11-10-8-10-11-10---|
A|----------------------------11--------------------------------------------|
E|--------------------------------------------------------------------------|

G|----------------------------|
D|-11-10-11-10-8--------------|
A|---------------11-----8h9-11|x2
E|------------------9-9-------|

Chorus:

G|--------------1-----------3---3-5-6-------------------|
D|----------4-----4-3-1---6---6-------6---------3-------|
A|--------4---4---------4-----------------6-4-3---6-4-3-|
E|-6-6--2-------------------------------4---------------|

G|---------6-5-------------1-----------3---3-5-6------------------|
D|-----8-------8-6-----4-----4-3-1---6---6-------6---------3------|
A|---8---8-----------4---4---------4-----------------6-4-3---6-4-3|
E|-6---------------2-------------------------------4--------------|

Bridge:

G|---------------------------------------------------|
D|---------------------------------------------------|
A|---------------------4-4-6-6-6h8p6-----------------|
E|-4-4-4-4-4-4-4-4-2-2---------------6-6-6-6-6-6-6-6-|

G|---------------------------------------------------|
D|---------------------------------------------------|
A|---------------------4-4-6-6-6h8p6-----------------|
E|-4-4-4-4-4-4-4-4-2-2---------------6-6-6-6-4-4-4-4-|

G|---------------------------------------------------------------------------|
D|---------------------------------------------------------------------------|
A|---------------------4-4-6-6-6h8p6-------------------------6-6-6-6---------|
E|-4-4-4-4-4-4-4-4-2-2---------------6-6-6-6-4-4-4-4-2-2-2-2---------6-6-6-6-|

G|-----------------|---------------------|
D|-----------------|---------------------|
A|-----------------|---------6-----------|
E|-2-2-4-4-6-6-8-8-|-6-6--4-----4-4-4-2-1|

Chorus:

G|---------6-5-------------1-----------3---3-5-6------------------|
D|-----8-------8-6-----4-----4-3-1---6---6-------6---------3------|
A|---8---8-----------4---4---------4-----------------6-4-3---6-4-3|x2
E|-6---------------2-------------------------------4--------------|

G|---------------|
D|-------------6-|
A|-----------6---|
E|-4-4-4-4-4-----|

Outro:

G|---------------------------|
D|---------------------------|
A|---8-6---9-8-6-----8-6---9-|
E|-6-----9-------9-6----9----|