Anti-flag - Press Corpse Chords & Tabs

 

Press Corpse Chords & Tabs

Anti-flag Chords & Tabs

Version: 1 Type: Bass Tab

Press Corpse Bass Tab

number 2 off the their new album! some nice stuff for bass...

Intro:

G|------------------|
D|------------------|
A|-----------8-6----|
E|-6-6-6-6-6-----9-6|

Verse:

G|---------------------------------------------------------------|
D|-------------------------------------3-3-4-4-6-----3---3-------|x2
A|---8-6-8-9-8-6-----8-6-8-9-8-6---4-4-------------6---6---6-4-3-|
E|-6-------------9-6-------------6---------------4---------------|

G|-----------------------------------------------------------------|
D|-----------------------------------------------------------------|
A|---------------------------------1-1-1-1-1-1-1-1-4-4-4-4-4-4-4-4-|
E|-2-2-2-2-2-2-2-2-2-2-2-2-2-2-2-2---------------------------------|

G|---------------------------------------------------------------|
D|-------------------------------------3-3-4-4-6-----3---3-------|x2
A|---8-6-8-9-8-6-----8-6-8-9-8-6---4-4-------------6---6---6-4-3-|
E|-6-------------9-6-------------6---------------4---------------|

Pre-Chorus:

G|---------------3---------------3---------------3-----------------------|
D|-3-4-3-4-6-4-6---6-4-3-4-6-4-6---6-4-3-4-6-4-6---6-4-3-----------------|
A|---------------------------------------------------------6-4-3-4-3-4-3-|
E|-------------------------------------------------------4---------------|

G|---------------3---------------3---------------3-------------------|
D|-3-4-3-4-6-4-6---6-4-3-4-6-4-6---6-4-3-4-6-4-6---6-4-3-------------|
A|-------------------------------------------------------------------|
E|-------------------------------------------------------4-4-4-4-4-4-|

Chorus:

G|-----------------------------------------------------------------|
D|-------------------------6-4-3-----------3-4-4-4-4-4-3-4-6-6-6-6-|
A|-----------------4-4-4-4---------------6-------------------------|x2
E|-6-6-6-6-6-6-6-6---------------4-4-4-4---------------------------|

G|------------------|
D|------------------|
A|-----------8-6----|
E|-6-6-6-6-6-----9-6|

Verse:

G|---------------------------------------------------------------|
D|-------------------------------------3-3-4-4-6-----3---3-------|x2
A|---8-6-8-9-8-6-----8-6-8-9-8-6---4-4-------------6---6---6-4-3-|
E|-6-------------9-6-------------6---------------4---------------|
[ Tab from: http://www.guitartabs.cc/tabs/a/anti_flag/press_corpse_btab.html ]
G|-----------------------------------------------------------------|
D|-----------------------------------------------------------------|
A|---------------------------------1-1-1-1-1-1-1-1-4-4-4-4-4-4-4-4-|
E|-2-2-2-2-2-2-2-2-2-2-2-2-2-2-2-2---------------------------------|

G|---------------------------------------------------------------|
D|-------------------------------------3-3-4-4-6-----3---3-------|x2
A|---8-6-8-9-8-6-----8-6-8-9-8-6---4-4-------------6---6---6-4-3-|
E|-6-------------9-6-------------6---------------4---------------|

Pre-Chorus:

G|---------------3---------------3---------------3-----------------------|
D|-3-4-3-4-6-4-6---6-4-3-4-6-4-6---6-4-3-4-6-4-6---6-4-3-----------------|
A|---------------------------------------------------------6-4-3-4-3-4-3-|
E|-------------------------------------------------------4---------------|

G|---------------3---------------3---------------3-------------------|
D|-3-4-3-4-6-4-6---6-4-3-4-6-4-6---6-4-3-4-6-4-6---6-4-3-------------|
A|-------------------------------------------------------------------|
E|-------------------------------------------------------4-4-4-4-4-4-|

Chorus:

G|-----------------------------------------------------------------|
D|-------------------------6-4-3-----------3-4-4-4-4-4-3-4-6-6-6-6-|
A|-----------------4-4-4-4---------------6-------------------------|x2
E|-6-6-6-6-6-6-6-6---------------4-4-4-4---------------------------|

G|------------------|
D|------------------|
A|-----------8-6----|
E|-6-6-6-6-6-----9-6|

Bridge:

G|---------------------------------------------------------------|
D|-------------------------------------3-3-4-4-6-----3---3-------|x4
A|---8-6-8-9-8-6-----8-6-8-9-8-6---4-4-------------6---6---6-4-3-|
E|-6-------------9-6-------------6---------------4---------------|

G|-------------------------------------------|
D|-------------------------------------------|
A|---1--4--------1------------1--4-------1---|
E|-2-------4--2-----4---1--2-------4--2-----4|

G|-----------------------------------------------------------|
D|-----------------------------------------------------------|
A|-----------------1-1-1-1-4-4---------------------1-1-1-1---|
E|-2-2-2-2-2-2-2-2-------------4-4-2-2-2-2-2-2-2-2---------4-|

Chorus:

G|-----------------------------------------------------------------|
D|-------------------------6-4-3-----------3-4-4-4-4-4-3-4-6-6-6-6-|
A|-----------------4-4-4-4---------------6-------------------------|x2
E|-6-6-6-6-6-6-6-6---------------4-4-4-4---------------------------|

G|------------------|
D|------------------|
A|-----------8-6----|
E|-6-6-6-6-6-----9-6|