Anti-flag - Power To The People Chords & Tabs

 

Power To The People Chords & Tabs

Anti-flag Chords & Tabs

Version: 1 Type: Tab 0 ratings
1 star 2 stars 3 stars 4 stars 5 stars
comments

Power To The People Tab

intro
E |----------------------------------------------------|
B |----------------------------------------------------|
G |--8xx---6xx---8xx---6-------------------------------|
D |--8xx6xx6xx6xx8xx6xx6-------------------------------|
A |--6xx6xx4xx6xx6xx6xx4-------------------------------|
E |-----4xx---4xx---4xx--------------------------------|

1st verse
E |-------------------------|--------------------------------|
B |-------------------------|--------------------------------|
G |--8888------6666---------|--------------6-----------------|
D |--8888-6666-6666-6666-x4-|--------9-9---6-----------------|
A |--4444-6666-4444-6666----|--------9--9--4-----------------|
E |-------4444------4444----|--------7---7-------------------|

chorus
E |----------------------------------------------------------------|
B |----------------------------------------------------------------|
G |--8888------6666---------88------6----------88------6-----------|
D |--8888-6666-6666-6666-x2-88--66--6-let ring-88--66--6-let ring--|
A |--4444-6666-4444-6666----66--66--4----------66--66--4-----------|
E |-------4444------4444--------44-----------------44--------------|

2nd verse
E |-------------------------------|---------------------------|
B |-------------------------------|---------------------------|
G |--8888------6666---------------|---------6-----------------|
D |--8888-6666-6666-6666--muted-x4|---9-9---6-----------------|
A |--4444-6666-4444-6666----------|---9--9--4-----------------|
E |-------4444------4444----------|---7---7-------------------|

chorus
E |------------------------------|
B |------------------------------|
G |--8888------6666--------------|
D |--8888-6666-6666-6666-x4------|
A |--4444-6666-4444-6666---------|
E |-------4444------4444---------|


E |--------------------------------------------------------------|
B |--------------------------------------------------------------|
G |--8888888-----------------6666666-----------------------------|
D |--8888888-9999999-4444444-6666666--x2-------------------------|
A |--6666666-9999999-4444444-4444444-----------------------------|
E |----------7777777-2222222-------------------------------------|

[ Tab from: http://www.guitartabs.cc/tabs/a/anti_flag/power_to_the_people_tab.html ]
E |--------------------------------------------------------------|
B |--------------------------------------------------------------|
G |--8----------8-6-8-6------------------------------------------|
D |--8-let ring---------9-8-9-6-4----------10-11-10-8-6----------|
A |--4--------------------------4-let ring-----------------------|
E |-----------------------------2--------------------------------|


E |--------------------------------------------------------------------|
B |--------------------------------------------------------------------|
G |--8----------8-6-8-6------------------------------------------------|
D |--8-let ring---------9-8-9-6-4---------8h10--8h10--8h108h108h108h10-|
A |--4--------------------------4-let ring-----------------------------|
E |-----------------------------2--------------------------------------|

solo
E |----------------------------------------------------|
B |----------------------------------------------------|
G |--13h15-15-13h15-15-13h15-15-13h15-15-14h15---------|
D |----------------------------------------------------|
A |----------------------------------------------------|
E |----------------------------------------------------|


E |----------------------------------------------------|
B |----------------------------------------------------|
G |--15-13-11----11-11h13-13b11------------------------|
D |-----------13----------------13---------------------|
A |----------------------------------------------------|
E |----------------------------------------------------|


E |---------------------------------------------------------|
B |---------------------------------------------------------|
G |--1311--1311--1311--1311--1311---13h1513h1513h15-13-11---|
D |------13----13----13----13----13-------------------------|
A |---------------------------------------------------------|
E |---------------------------------------------------------|

3rd verse
E |--------------------------------|-------------------------|
B |--------------------------------|-------------------------|
G |--8888------6666----------------|--------6----------------|
D |--8888-6666-6666-6666--------x4-|--9-9---6----------------|
A |--4444-6666-4444-6666-----------|--9--9--4----------------|
E |-------4444------4444-----------|--7---7------------------|


E |----------------------------------------|
B |----------------------------------------|
G |--8888------6666------------------------|
D |--8888-6666-6666-6666--muted-x12--------|
A |--4444-6666-4444-6666-------------------|
E |-------4444------4444-------------------|


E |----------------------------------------------------------------|
B |----------------------------------------------------------------|
G |--8888------6666-----------88-6-8-------------------------------|
D |--8888-6666-6666-6666-x8---88-6-8-------------------------------|
A |--4444-6666-4444-6666------66-4-6-------------------------------|
E |-------4444------4444-------------------------------------------|
Comments