Anti Flag - Police Story Chords & Tabs

 

Police Story Chords & Tabs

Anti Flag Chords & Tabs

Version: 1 Type: Tab 0 ratings
1 star 2 stars 3 stars 4 stars 5 stars
comments

Police Story Tab

   
Anti-Flag - Police Story

Intro
e|----------------------------------------------------------------------|
B|----------------------------------------------------------------------|
G|-6-----------------------------------------666666---------444---------|
D|-6-Let Ring-----After a while, pick slide--666666-777-666-444-222-444-|
A|-4-----------------------------------------444444-777-666-222-222-444-|
E|--------------------------------------------------555-444-----000-222-|

e|---------------------------------9--9--9--9--9----------9-------------|
B|-----------------------------------9--9--9--9--------7----------------|
G|-666666---------999999--------6-----------------6--------------------6|
D|-666666-777-666-999999-999999-6-----------------6---------Pick slide-6|
A|-444444-777-666-777777-999999-4-----------------4--------------------4|
E|--------555-444--------777777-----------------------------------------|

                     |Chorus
e|--------------------|-------------------------------------------------|
B|--------------------|-------------------------------------------------|
G|------------------6-|666666---------444444---------666666-------------|
D|---BASS SOLO------4-|666666-777-666-444444-222-444-666666-777-666-----|
A|--------------------|444444-777-666-222222-222-444-444444-777-666-----|
E|--------------------|-------555-444--------000-222--------555-444-----|

                                Chorus ends|
e|---------------|-------------------------||-----9--9--9--9--9---------|
B|---------------|-------------------------||-------9--9--9--9----------|
G|-999999--------|----------999-666--------||-6-------------------6-----|
D|-999999-999999-|--666-999-999-666--repeat||-6-------------------6-----|
A|-777777-999999-|--666-999-777-444----4x--||-4-------------------4-----|
E|--------777777-|--444-777----------------||---------------------------|
[ Tab from: http://www.guitartabs.cc/tabs/a/anti_flag/police_story_tab.html ]
e|----9-----------------------------------------------------------------|
B|-7--------------------------------------------------------------------|
G|-------------------6--------------------------------------------------|
D|-------Pick Slide--6---Bass Solo-----(Reapeat Chorus)-----------------|
A|-------------------4--------------------------------------------------|
E|----------------------------------------------------------------------|

e|----------------------------------------------------------------------|
B|----------------------------------------------------------------------|
G|------6666------4444------6666------4444-Repeat Palm Muted------------|
D|-6666-4444-2222-2222-6666-4444-2222-2222------------------------------|
A|-6666------2222------6666------2222-----------------------------------|
E|-4444------0000------4444------0000-----------------------------------|

e|----------------------------------------------------------------------|
B|-------------------------------------------7--5--4-----4---4----------|
G|-------------------------4-----4--6--4--6-----------6----6---6--4--6--|
D|-SOLO--------4--6--4--6-----6-----------------------------------------|
A|-------4--6-----------------------------------------------------------|
E|----------------------------------------------------------------------|

  \=BEND
e|-9-9-9-9-9-9-9-9-9-9-9-9-9-9-9---9\-9\-9\-----------------------------|
B|-9-9-9-7-9-9-7-9-9-7-9-9-7-9-9--------------7\-7\-7\------------------|
G|----------------------------------------------------------------------|
D|----------------------------------------------------------------------|
A|----------------------------------------------------------------------|
E|----------------------------------------------------------------------|

e|----------------------------------------------------------------------|
B|----------------------------------------------------------------------|
G|-66-666666-6-666666-6-666666-REPEAT A BUNCH OF TIMES-(PALM MUTED)-----|
D|----------------------------------------------------------------------|
A|----------------------------------------------------------------------|
E|----------------------------------------------------------------------|

e|-----------------------------||
B|-----------------------------||
B|---------999-666-------------||
D|-666-999-999-666-(REPEAT 8X)-||
A|-666-999-777-444-------------||
E|-444-777---------------------||
Comments