Anti Flag - Police Story Chords & Tabs

 

Police Story Chords & Tabs

Anti Flag Chords & Tabs

Version: 1 Type: Bass Tab 0 ratings
1 star 2 stars 3 stars 4 stars 5 stars
comments

Police Story Bass Tab

   
Anti-Flag
Police Story
Tabbed by: intense@westol.com

this is tabbed in normal antiflag tuning (half step down). if you're
regular tuning, just play everything one fret lower than what it says
on this tab

Verse: This once again has many parts to it too, i have the order in
which they are played posted at the end of the tab

Part A:
Gb-------------------------------------------------
Db-------------------------------------------------
Ab-5-5-5-5-5-5-------------3-3-3-3-3-3-------------
Eb-------------6-6-6-5-5-5-------------1-1-1-3-3-3-

Gb-------------------------------------------------
Db-------------------------------------------------
Ab-5-5-5-5-5-5-------------8-8-8-8-8-8-------------
Eb-------------6-6-6-5-5-5-------------8-8-8-8-8-8-

Part B:
Gb-------------------------------------------------
Db-------------------------------------------------
Ab-5-5-3-5-5-5---8-----7---3-3-1-3-3-3---3-----5---
Eb-------------6---6-5---5-------------1---1-3---3-

Gb-------------------------------------------------
Db---------------------7---------------------------
Ab-5-5-3-5-5-5---8---------8-8-8-8-8-8-------------
Eb-------------6---6-5---5-------------8-8-8-8-8-8-

Part C:
Gb-------------------------------------------------
Db-------------------------------------------------
Ab-5-5-3-5-5-5---8-----7---3-3-1-3-3-3---3-----5---
Eb-------------6---6-5---5-------------1---1-3---3-

Gb-------------------------------------------------------
Db---------------------7-----------10-10-10-10-----------
Ab-5-5-3-5-5-5---8---------8-8-8-8-----------------------
Eb-------------6---6-5---5---------------------8-8-8-8-8-
[ Tab from: http://www.guitartabs.cc/tabs/a/anti_flag/police_story_btab.html ]
Chorus:
Gb-------------------------
Db---------------10----7---
Ab-------------8---8-5---5- (3x)
Eb-5-5-5-8-8-8-------------

then

Gb---------------
Db---------------
Ab-------------8-
Eb-5-5-5-8-8-8---

Part D:
Gb-------------------------------------------------
Db-------------------------------------------------
Ab-5-5-3-5-5-5---8-----7---3-3-1-3-3-3---3-----5---
Eb-------------6---6-5---5-------------1---1-3---3-

Gb---------------------------
Db---------------------7-----
Ab-5-5-3-5-5-5---8---------8-
Eb-------------6---6-5---5---


Bridge:
Gb-------------------------------------------------
Db-------------5-5-5-5-5-5-------------3-3-3-3-3-3-
Ab-----5-3---------------------3-1----------------- (3x)
Eb-5-5-----5-3-------------1-1-----3-1-------------

then

Gb-------------------------------------------------5-5-5-5-5-5-
Db-------------5-5-5-5-5-5-------------3-3-3-3-3-3-------------
Ab-----5-3---------------------3-1-----------------------------
Eb-5-5-----5-3-------------1-1-----3-1-------------------------

Part E:
Gb-------------------------------------------------
Db-------------------------------------------------
Ab-5-5-5-5-5-5---8-----7---3-3-3-3-3-3---3-----5--- (2x)
Eb-------------6---6-5---5-------------1---1-3---3-

Part F:
Gb-------------------------------------------------
Db-------------------------------------------------
Ab-5-5-5-5-5-5---8-----7---3-3-3-3-3-3---3-----5---
Eb-------------6---6-5---5-------------1---1-3---3-

Gb---------------------------
Db---------------------7-----
Ab-5-5-5-5-5-5---8---------8-
Eb-------------6---6-5---5---


Order Of Song:
Part A
Part B
Part A
Part B
Part C
Chorus
Part A
Part B
Part D
Chorus
Bridge
Part A
Part E
Part F
Chorus

Comments