Anti-flag - Operation Iraqi Liberation Chords & Tabs

 

Operation Iraqi Liberation Chords & Tabs

Anti-flag Chords & Tabs

Version: 1 Type: Tab 0 ratings
1 star 2 stars 3 stars 4 stars 5 stars
comments

Operation Iraqi Liberation Tab

Song: Operation Iraqi Liberation
Artist: Anti-Flag
Tabbed By: DJ Scott
Tuning: Standard
h=hammer on

Intro:


Gutiar 1:

e|------------------|
b|------------------|
g|------------------|x24
d|---------4h6------|
a|---4h6------------|
E|------------------|

Guitar 2:

e|---444444444444---|
b|---444444444444---|
g|---444444444444---|
d|---666666666666---|
a|---666666666666---|
E|---444444444444---|



Guitar 1:

e|-------------------------------------------------------------------------|
b|-------------------------------------------------------------------------|
g|----------------------------44444444---------------------------444444444-|
d|666666666666--222222222222--44444444--66666666666--2222222222--444444444-|
a|666666666666--222222222222--22222222--66666666666--2222222222--222222222-|
E|444444444444--000000000000------------44444444444--0000000000------------|

Guitar 2:

e|-4-6-7-9-7-6-7-6-4-2-4-2-4-2-0---7-6-7-6-4-2-4-2-|
b|-------------------------------4-----------------|
g|-------------------------------------------------|
d|-------------------------------------------------|
a|-------------------------------------------------|
E|-------------------------------------------------|
[ Tab from: http://www.guitartabs.cc/tabs/a/anti_flag/operation_iraqi_liberation_tab.html ]
Guitar 1:

e|-----4-----4-----4-----4-----------|
b|-2h4---2h4---2h4---2h4-------------|
g|--------------------------9999-----|x4
d|--------------------------9999-9999|
a|--------------------------7777-9999|
E|-------------------------------7777|


e|-------------------4-6-7-9-| e|-------------4-2-0--0------| e|----------|
b|---------------------------| b|-------------------4-4-2-4-| b|----------|
g|---9999--------------------| g|---9999--------------------| g|-9999-----|
d|---9999-9999---------------| d|---9999-9999---------------| d|-9999-9999|
a|---7777-9999---------------| a|---7777-9999---------------| a|-7777-9999|
E|--------7777---------------| E|--------7777---------------| E|------7777| 


e|-------------| e|------------|
b|------------4| b|------------|
g|-8----6-4-3--| g|-9999-------|
d|-8-9---------| d|-9999-9999--|
a|-6-9---------| a|-7777-9999--|
E|---7---------| E|------7777--|


Outro:

e|-------------------------------------|   e|----|
b|-----------------------------77777777|   b|----|
g|--------------------44444444-66666666|x4 g|----|
d|--66666666-22222222-44444444-44444444|   d|-6--|
a|--66666666-22222222-22222222---------|   a|-6--|
E|--44444444-00000000------------------|   E|-4--|
Comments