Anti-flag - Operation Iraqi Liberation Chords & Tabs

 

Operation Iraqi Liberation Chords & Tabs

Anti-flag Chords & Tabs

Version: 1 Type: Bass Tab 0 ratings
1 star 2 stars 3 stars 4 stars 5 stars
comments

Operation Iraqi Liberation Bass Tab

Anti-flag
Operation Iraqi Liberation (o.i.l)

Standard Tuning


This song, as with all anti-flag songs is hard to tab so it might not be
great.

Intro

G----------11h13----|
D--11h13------------|
A-------------------|
E-------------------|


Verse

G------------------------------------------------------|
D--------------------------9-7-------7-6---------------|
A-4-4--6-6--7-7--9-9--7-7-------9-7------7-6-----------|
E------------------------------------------------------|

The bassist has loads of little fills i think, some of them i play are-

G------------------------------------------------------|
D--------------------------7h9h7--------6h7h6----------|
A-4-4--6-6--7-7--9-9--7-7--------9--7-7----------------|
E------------------------------------------------------|


G------------------------------------------------------|
D----------------------9-7-------9-7-------------------|
A---4-4--6-6--7-7--9-9------9-7------------------------|
E-------------------------------------9-7--------------|


Chorus
[ Tab from: http://www.guitartabs.cc/tabs/a/anti_flag/operation_iraqi_liberation_btab.html ]
G------------------------------------------------------|
D--------6-4-----------6-4---------------6--4----------|
A-------------6-------------6------------------6--4----|
E---6-6-----------4-4-----------4-4-6-6----------------|


G-------------------------------------------------------|
D--------6-4-----------6-4------6-4---------------------|
A-------------6------------6---------6-4-----------4----|
E---6-6-----------4-4----------------------6-4-6--------|


Bridge

(almost same as intro, played with gaps inbetween and altered slightly)

G---------11h13-13---------11h13------|
D---11h13-----------11h13--------13---|
A-------------------------------------|
E-------------------------------------|

Outro

This time on the last chorus the bass follows the pattern of guitar
going higher than on other chorus'.


G--------------------------------------------------------------------|
D-------------------------------------16-16-14-14--------------------|
A-11-11-11-13-13-13-14-14-14-16-16-16-------------16-16-14-14--------|
E--------------------------------------------------------------------|


angerisagift03@hotmail.com email you if your wierd like that.
tony
Comments