Anti-flag - One People One Struggle Chords & Tabs

 

One People One Struggle Chords & Tabs

Anti-flag Chords & Tabs

Version: 2 Type: Tab 0 ratings
1 star 2 stars 3 stars 4 stars 5 stars
comments

One People One Struggle Tab

One People, One Struggle-Anti-Flag
*-palm mute
~-hold note
>>>-pick scrape
[ Tab from: http://www.guitartabs.cc/tabs/a/anti_flag/one_people_one_struggle_tab_ver_2.html ]
Intro 
-------------------------------------------------------
------------------------------------------------------- 
--6-~~~ 6~~~~~~~~~~~~~~~~~~ 6******6**6**6**6---------- 
--6-----6-------------------6******6**6**6**6----------
--4-----4-------------------4******4**4**4**4---------- 
-------------------------------------------------------
Intro
------------------------------------------------------------ 
--9-----------9--------------9----------9------12-9---------
----9-6-9-8-9---9-8-11-9-8-9--9-6-9-8-9---9-8-------9-8-6--- 
------------------------------------------------------------ 
------------------------------------------------------------
------------------------------------------------------------ 
Verse - "its time to see the world as a whole" 
------------------------------------------------ 
------------------------------------------------ 
--**6**6**6**6**6**6**6-6-6-6-6-->>>>>>>>>>----- 
--**6**6**6**6**6**6**6-6-6-6-6-----------------
--**4**4**4**4**4**4**4-4-4-4-4----------------- 
------------------------------------------------ 
"everywhere you look red, white and blue, everywhere you look their fooling you" 
--------------------------------------- 
--------------------------------------- 
--------------------------------------- 
---7777777777-999999999---------------- 
---7777777777-999999999----------------
---5555555555-777777777---------------- 
"One People One Struggle, Stand Untied Stand Peaceful" 
-------------------------------------------------------------
-------------------------------------------------------------
--666666-999999----------------6666666-44444444--------------
--666666-999999-999999-7777777-6666666-44444444-77777777----- 
--444444-777777-999999-7777777-4444444-22222222-77777777----- 
----------------777777-5555555------------------55555555----- 
Verse
-------------------------- 
--6--6--6--6--6--6-------- 
--6--6--6--6--6--6--------
--4--4--4--4--4--4--------
--------------------------
"everywhere you look red, white and blue, everywhere you look their fooling you" 
------------------------------------------------ 
------------------------------------------------ 
------------------------------------------------ 
---7777777777-999999999------------------------- 
---7777777777-999999999------------------------- 
---5555555555-777777777------------------------- 
"One People, One Struggle, Stand United, Stand Peaceful" 
------------------------------------------------------------ 
------------------------------------------------------------ 
--666666-999999----------------6666666-44444444-------------
--666666-999999-999999-7777777-6666666-44444444-77777777---- 
--444444-777777-999999-7777777-4444444-22222222-77777777---- 
----------------777777-5555555------------------55555555---- 
"The Union Of Free Thinking" 
----------------------------------------------------------- 
----------------------------------------------------------- 
-**2**2**2**2-**4**4**4**4-**2**2**2**2-**4**4**4**4------- 
-**2**2**2**2-**4**4**4**4-**2**2**2**2-**4**4**4**4------- 
-**0**0**0**0-**2**2**2**2 **0**0**0**0-**2**2**2**2------- 
-----------------------------------------------------------
"The Union Of Free Thinking" 
-----------------------------------------------------------
-----------------------------------------------------------
-2~~~~~~~~~~~~~4~~~~~~~~~~~2222222222222-44444444444444---- 
-2-------------4-----------2222222222222-44444444444444---- 
-0-------------2-----------0000000000000-22222222222222---- 
-----------------------------------------------------------
Sweet Little Riff          ^^^^^^^^^^^^^ ^^^^^^^ 
----------------------------------------------------------- 
--2-4-5-2-0-5----------------------------------------------
----------------------------------------------------------- 
----------------------------------------------------------- 
----------------------------------------------------------- 
----------------------------------------------------------- 
"The People United Will Never Be Defeated" 
-----------------------------------------------------------
----------------------------------------------------------- 
--66666666-88888888-9999999-666666666-88888888-9-9-9-9-9-9- 
--66666666-88888888-9999999-666666666-88888888-9-9-9-9-9-9- 
--44444444-66666666-7777777-444444444-66666666-7-7-7-7-7-7- 
----------------------------------------------------------- 

Last Chorus 
----------------------------------------------------- 
--9--------9---------9-------9-----------------------
----9-6-9---9-8-9---9-6-9---9-8-9-------------------- 
----------------------------------------------------- 
----------------------------------------------------- 
----------------------------------------------------- 
"The People United Will Never Be Defeated...." 
------------------------------------------------------
------------------------------------------------------
-6------8-------9------6-------4------9---------------
-X------X-------X------X-------X------X---------------
-4------6-------7------4-------2------7---------------
------------------------------------------------------

spudnik16@juno.com for comments.
Comments