Anti-flag - One People One Struggle Chords & Tabs

 

One People One Struggle Chords & Tabs

Anti-flag Chords & Tabs

Version: 1 Type: Tab 0 ratings
1 star 2 stars 3 stars 4 stars 5 stars
comments

One People One Struggle Tab

By:betterthanme@hotmail.com "mouz"
------------------------------------------------------------------
            One People, One Struggle -Anti-Flag
------------------------------------------------------------------

I think that this tab is correct so good work.


Intro :

e|--4-4----------------------------------------------------------------------|
B|--4-4----------------------------------------------------------------------|
G|--6-6-----6-6-6-6-6-6-6-6-6-6-6-6-6-6-6-6-6-6-6-6-6-6-6-6-6-6-6-6-6--------|
D|--6-4-----6-6-6-6-6-6-6-6-6-6-6-6-6-6-6-6-6-6-6-6-6-6-6-6-6-6-6-6-6--------|
A|--4-4-----4-4-4-4-4-4-4-4-4-4-4-4-4-4-4-4-4-4-4-4-4-4-4-4-4-4-4-4-4--------|
E|---------------------------------------------------------------------------|
              palm mute----------------------------------------------


Guitar 1:
e|---------------------------------------------------------------------------|
B|-9----------9----7-------9~12----9----------9-----9~12-10-9~10-------------|
G|--9-6-9-6-9--9-6---9-8-9----------9-6-9-6-9---6-9--------------6-----------|
D|---------------------------------------------------------------------------|
A|---------------------------------------------------------------------------|
E|---------------------------------------------------------------------------|

Guitar 2:
e|---------------------------------------------------------------------------|
B|---------------------------------------------------------------------------|
G|-6-6-6-6-6-6--------------------6-6-6--------------------------------------|
D|-6-6-6-9-9-9-7-7-7-6-6-6--------6-6-6-7-7-7-9-9-9-8-8-8--------------------|
A|-4-4-4-7-7-7-7-7-7-6-6-6--------4-4-4-7-7-7-9-9-9-6-6-6--------------------|
E|-------------5-5-5-4-4-4--------------5-5-5-7-7-7-4-4-4--------------------|

Part 1 :
e|---------------------------------------------------------------------4-----|
B|----------------------------------------------------------------------4----|
G|-6-6-6-6-6-6-6-6-6-6-6-6-6-6-6-6-6-6-6-6-6-6-6-6-6-6-6-6-6-6-6-6-6-6---6---|
D|-6-6-6-6-6-6-6-6-6-6-6-6-6-6-6-6-6-6-6-6-6-6-6-6-6-6-6-6-6-6-6-6-6-6-------|
A|-4-4-4-4-4-4-4-4-4-4-4-4-4-4-4-4-4-4-4-4-4-4-4-4-4-4-4-4-4-4-4-4-4-4-------|
E|---------------------------------------------------------------------------|
             palm mute----------------------------------------------

Repeat 2 time this part
e|---------------------------------------------------------------------------|
B|---------------------------------------------------------------------------|
G|-6-6-6-6-6-6-6-6-6-6-6-6-6-6-6-6-6-6-6-6-6-6-6-6-6-6-6-6-6-6---------------|
D|-6-6-6-6-6-6-6-6-6-6-6-6-6-6-6-6-6-6-6-6-6-6-6-6-6-6-6-6-6-6---7-7-9-9-----|
A|-4-4-4-4-4-4-4-4-4-4-4-4-4-4-4-4-4-4-4-4-4-4-4-4-4-4-4-4-4-4---7-7-9-9-----|
E|---------------------------------------------------------------5-5-7-7-----|
  palm mute----------long time----------------------------------    
      

Chorus :

Guitar 1:                            Guitar 2 :
e|---------------------------------------------------------------------------|
B|---------------------------------------------------------------------------|
G|-6-6-6-6-9-9-9-9--------------------6-6-6-6-9-9-9-9-8-8-8-8-6-6-6-6--------|
D|-6-6-6-6-9-9-9-9-7-7-7-7-9-9-9-9----x-x-x-x-x-x-x-x-x-x-x-x-x-x-x-x--------|
A|-4-4-4-4-7-7-7-7-7-7-7-7-9-9-9-9----4-4-4-4-7-7-7-7-6-6-6-6-4-4-4-4--------|
E|-----------------5-5-5-5-7-7-7-7-------------------------------------------|

[ Tab from: http://www.guitartabs.cc/tabs/a/anti_flag/one_people_one_struggle_tab.html ]
e|---------------------------------------------------------------------------|
B|---------------------------------------------------------------------------|
G|-6-6-6-6-6-6-6-6-6-6-6-6-6-6-6-6-6-6-6-6-6-6-6-6-6-6-6-6-6-6---------------|
D|-6-6-6-6-6-6-6-6-6-6-6-6-6-6-6-6-6-6-6-6-6-6-6-6-6-6-6-6-6-6---7-7-9-9-----|
A|-4-4-4-4-4-4-4-4-4-4-4-4-4-4-4-4-4-4-4-4-4-4-4-4-4-4-4-4-4-4---7-7-9-9-----|
E|---------------------------------------------------------------5-5-7-7-----|
  palm mute----------long time----------------------------------    


Repeat 2 time this part
Guitar 1:                            Guitar 2 :
e|---------------------------------------------------------------------------|
B|---------------------------------------------------------------------------|
G|-6-6-6-6-9-9-9-9--------------------6-6-6-6-9-9-9-9-8-8-8-8-6-6-6-6--------|
D|-6-6-6-6-9-9-9-9-7-7-7-7-9-9-9-9----x-x-x-x-x-x-x-x-x-x-x-x-x-x-x-x--------|
A|-4-4-4-4-7-7-7-7-7-7-7-7-9-9-9-9----4-4-4-4-7-7-7-7-6-6-6-6-4-4-4-4--------|
E|-----------------5-5-5-5-7-7-7-7-------------------------------------------|


Beack
e|---------------------------------------------------------------------------|
B|---------------------------------------------------------------------------|
G|--6-6-6--------------------------------------------------------------------|
D|--6-6-6-7-7-7-9-9-9-7-7-7-9-9-9-7-7-7-7-9-9-9-9-7-7-7-7-9-9-9-9------------|
A|--4-4-4-7-7-7-9-9-9-7-7-7-9-9-9-7-7-7-7-9-9-9-9-7-7-7-7-9-9-9-9------------|
E|--4-4-4-5-5-5-7-7-7-5-5-5-7-7-7-5-5-5-5-7-7-7-7-5-5-5-5-7-7-7-7------------|
          palm mute--------------I                        palm mute---


Breack 2
 Guitar 1: Repeat 2 time this part
e|---------------------------------------------------------------------------|
B|---------------------------------------------------------------------------|
G|--6--6--6--8--8--8--9--9--9--6--6--6--8--8--8--9--9--9---------------------|
D|--x--x--x--x--x--x--x--x--x--x--x--x--x--x--x--x--x--x---------------------|
A|--4--4--4--6--6--6--7--7--7--4--4--4--6--6--6--7--7--7---------------------|
E|---------------------------------------------------------------------------|

Guitar 2: the 2nd time
e|---------------------------------------------------------------------------|
B|---------------------------------------------------------------------------|
G|--6--6--6--------------------6--6--6---------------------------------------|
D|--6--6--6--9--9--9--7--7--7--6--6--6--9--9--9--7--7--7---------------------|
A|--4--4--4--9--9--9--7--7--7--4--4--4--9--9--9--7--7--7---------------------|
E|-----------7--7--7--5--5--5-----------7--7--7--5--5--5---------------------|


Outro :

Guitar 1:
e|---------------------------------------------------------------------------|
B|-9------9------------9--------9~12-10-9~10~9-------------------------------|
G|--9-6-9--9-6-8-9------9-6-8-9----------------------------------------------|
D|---------------------------------------------------------------------------|
A|---------------------------------------------------------------------------|
E|---------------------------------------------------------------------------|
repeat 7 time----- and -----------------------


Guitar 2: 
e|---------------------------------------------------------------------------|
B|---------------------------------------------------------------------------|
G|--6--6--6--------------------6--6--6---------------------------------------|
D|--6--6--6--9--9--9--7--7--7--6--6--6--9--9--9--7--7--7---------------------|
A|--4--4--4--9--9--9--7--7--7--4--4--4--9--9--9--7--7--7---------------------|
E|-----------7--7--7--5--5--5-----------7--7--7--5--5--5---------------------|
Comments