Anti-flag - No Borders No Nations Chords & Tabs

 

No Borders No Nations Chords & Tabs

Anti-flag Chords & Tabs

Version: 1 Type: Bass Tab

No Borders No Nations Bass Tab

Intro
G--------------------|
D--------------------|
A-4--224--220--99----|
E----------------4---|

Verse
G------------------------|
D------------------------|
A-4>-22-4>-22-0>-99------| 2x
E-------------------4>---|

Chorus
G--------------------------------|
D---------------776644--44-------|
A-44476----76---------77--7766---|
E-------777---55-----------------|

G---------------------------------|
D-----------------44--446644------|
A-44476----76---77--77------77----| 1st time
E-------777---55------------------|

G-----------------|
D-----------------|
A-44476----76-----| 2nd time
E-------777---5---|

Bridge
G------------------------------|
D------------------------------|
A-4>222-4>222-0>------76-96----|
E---------------222-4>--7--7---|

G------------------------|
D------------------------|
A-4>222-4>222-0>---------|
E---------------222-4>---|

Verse
Chorus

Bridge II
G------------------------------------|
D-----44--446644----6644--44---------|
A---77--77------77------77--776677---|
E-55--------------77-----------------|

G-------------------------------66---|
D-----44--446644----7766--667799-----|
A---77--77------77------99-----------|
E-55--------------77-----------------|
[ Tab from: http://www.guitartabs.cc/tabs/a/anti_flag/no_borders_no_nations_btab.html ]
G------------------------------------|
D-----44--446644----6644--44---------|
A---77--77------77------77--776677---|
E-55--------------77-----------------|

G-------------------------------------|
D-----44--446644----6644--44----------|
A---77--77------77------77--7766774---|
E-55--------------77------------------|

Outro 2x
G------------------------------------|
D------------------------------------|
A-44-444-444-444-444-444-444-444-4---|
E------------------------------------|

G------------------------------------|
D------------------------------------|
A------------------------------------|
E-55-555-555-555-544-444-444-444-4---|

Outro 2 2x
G-66-666-666-666-666-666-666-666-6---|
D-66-666-666-666-666-666-666-666-6---|
A-44-444-444-444-444-444-444-444-4---|
E------------------------------------|

G------------------------------------------------------------|
D-1111-111111-141414-111111-111111-111111-111010-101010-10---|
A-1212-121212-121212-121212-121111-111111-111111-111111-11---|
E------------------------------------------------------------|

Last Line
G-66-666-666-666-666-666-666-666-6---|
D-66-666-666-666-666-666-666-666-6---|
A-44-444-444-444-444-444-444-444-4---|
E------------------------------------|

G----------------------------------------------------------6---|
D-1111-111111-141414-111111-111111-111111-111010-101111-11-6---|
A-1212-121212-121212-121212-121111-111111-111111-111111-11-4---|
E--------------------------------------------------------------|