Anti Flag - No Apology Chords & Tabs

 

No Apology Chords & Tabs

Anti Flag Chords & Tabs

Version: 1 Type: Bass Tab 0 ratings
1 star 2 stars 3 stars 4 stars 5 stars
comments

No Apology Bass Tab

   
Anti-Flag
No Apology
Tabbed by: intense@westol.com

this is tabbed in normal antiflag tuning (half step down). if you're
regular tuning, just play everything one fret lower than what it says
on this tab

this song is very confusing, i've tried to label when to play what to
the best of my ability, it shouldnt be that confusing.


Intro/Chorus:
Gb-------------------------------------------
Db-------------------------------------------
Ab-5-5-5-----8-8-8-8-8-8-5-5-5-----8-8-8-----
Eb-------6-6-------------------6-6-------8-8-

Gb-----------------------7-7-----10-
Db---------------------------8-8----
Ab-5-5-5-----8-8-8-8-8-8------------
Eb-------6-6------------------------


-----------------------------Verse---------------------------------


Verse: ok the verse is kind of tricky, so i've labeled it into Parts A
through E. The order they are played are as follows: Part A, Part B,
Part C, Part A, Part B, Part C, Part D, Part E

Part A:
Gb----------------------------------10-10-9-9-
Db----------------------12-12-10-10-----------
Ab----12-12-10-10-12-12-----------------------
Eb-10-----------------------------------------

Gb-12-12-10-10-9-9-------10-10-9-9-------------
Db-----------------12-12-----------12-12-10-10-
Ab---------------------------------------------
Eb---------------------------------------------

Part B:
Gb-------------------------------------
Db-------------------12-12-12-12-12-12-
Ab-------------------------------------
Eb-10-10-10-10-10-10-------------------

Gb-10-10-10-10-10-10-14-14-14-14-14-14-
Db-------------------------------------
Ab-------------------------------------
Eb-------------------------------------

Part C:
Gb-----------------10-10-8-8-------
Db-----10-8------------------10-10-
Ab-8-8------10---------------------
Eb-------------8-8-----------------
[ Tab from: http://www.guitartabs.cc/tabs/a/anti_flag/no_apology_btab.html ]
Part D:
Gb-7-7-----7-7-----7-7---
Db-----7-7-----7-7-----7-
Ab-----------------------
Eb-----------------------

Part E:
Gb------------------------------------------------------------10-10-8-8-
Db---------------------------------------------------10-10-10-----------
Ab-8-8-8-8-8-----------8-8-8-8-8-----------8-8-8-8-8--------------------
Eb-----------8-8-8-8-8-----------8-8-8-8-8------------------------------



-------------------------------Bridge------------------------------



Bridge 1:
Gb---------------------------------------------------------------------
Db---------------------------------------------------------------------
Ab-----------------5-5-5-5-5-5-5-5---------------------8-8-8-8-8-8-8-8-
Eb-8-8-8-8-8-8-8-8-----------------6-6-6-6-6-6-5-5-5-5-----------------

Gb---------------------------------------------------------------------
Db---------------------------------8-8-8-8-8-8-7-7-7-7-8-8-7-7-5-5-----
Ab-----------------5-5-5-5-5-5-5-5---------------------------------8-8-
Eb-8-8-8-8-8-8-8-8-----------------------------------------------------

Bridge 2:
Gb------------------
Db------------------
Ab---10-10-8-8------  (4x)
Eb-8-----------10-8-

then

Gb----12-12-10-10-------
Db-10-------------12-10-
Ab---------------------- (3x)
Eb----------------------

then

Gb----------10-10-12-12-
Db-10-12-12-------------
Ab----------------------
Eb----------------------

--------------------------Outro----------------------------------

Outro:
Gb---------------------------------------------------
Db---------------------------------------------------
Ab-5-5-5-5-5-5-------------------------8---8-8-7-7-5- (2x)
Eb-------------6-6-6-6-6-6-5-5-5-5-5-5---8-----------

then

Gb-------------------------------------------------
Db-------------------5-7-7-7-7-8-10-10-10-10-10-10-
Ab-5-5-5-5-7-8-8-8-8-------------------------------  (1x)
Eb-------------------------------------------------

then

Gb--------------------------------
Db-12--10--7--8--7--5-------------
Ab---------------------8--7--5--8-
Eb--------------------------------
Comments